Song name
# A B C D E F G H I J K L M N O P Q R S T U V W X Y Z

Annihilator - Annihilator tab

#----------------------------------PLEASE NOTE---------------------------------#
#This file is the author's own work and represents their interpretation of the #
#song. You may only use this file for private study, scholarship, or research. #
#------------------------------------------------------------------------------#

ANNIHILATOR
As recorded by Annihilator
(From the 1994 Album KING OF THE KILL)

Transcribed by livingzombie
	

Words by Jeff Waters and John Bates Music by Jeff Waters

Gtr I (D A D G B E) - 'Guitar I'
Gtr II (D A D G B E) - 'Guitar II'
Gtr III (D A D G B E) - 'Guitar III'
Gtr IV (D A D G B E) - 'Guitar IV'
Gtr V (D A D G B E) - 'Clean Guitar'
Gtr VI (D A D G B E) - 'Pick Scrape'

 Intro
  Q=96
 4/4
  Gtrs I, II
  W          Wx3          H.      E  E
|----------|------------|----------------|
|----------|------------|----------------|
|----------|------------|----------------|
|----------|------------|----------------|
|----------|------------|----------------|
|----------|------------|-----------12\--|


  $
      F5G5  D5    F5G5  D5              F5G5  D5    N.C.
  PM|       PM  PM      PM  PM--|     PM      PM  PM
  S S S S S S S S S S S S S S S S   S S S S S S S S S S S  S S S S S
|---------------------------------|----------------------------------|
|---------------------------------|----------------------------------|
|---------------------------------|----------------------------------|
|---------------------------------|----------------------------------|
|-----3h5---0-----3h5---0-------0-|-----3h5---0-----5-5-3------------|
|-0-0-3h5---0---0-3h5---0---0-0-0-|---0-3h5---0---0-------h5-5p4-3p0-|


      F5G5  D5    F5G5  D5              F5G5  D5    N.C.
    PM      PM  PM      PM  PM--|     PM      PM  PM
  S S S S S S S S S S S S S S S S   S S S S S S S S S S S  S S S S S
|---------------------------------|----------------------------------|
|---------------------------------|----------------------------------|
|---------------------------------|----------------------------------|
|---------------------------------|----------------------------------|
|-----3h5---0-----3h5---0-------0-|-----3h5---0-----5-5-3------------|
|-x-0-3h5---0---0-3h5---0---0-0-0-|---0-3h5---0---0-------h5-5p4-3p0-|


           F5G5  D5    F5G5  D5                F5G5  D5    N.C.
    Gtrs I, II
         PM      PM  PM      PM  PM--|       PM      PM  PM
    S    S S S S S S S S S S S S S S S   S   S S S S S S S S S S  S S S S S
||-------------------------------------|-------------------------------------|
||o------------------------------------|-------------------------------------|
||-------------------------------------|-------------------------------------|
||-------------------------------------|-------------------------------------|
||o--------3h5---0-----3h5---0-------0-|-------3h5---0-----5-5-3-------------|
||--x----0-3h5---0---0-3h5---0---0-0-0-|-----0-3h5---0---0-------h5-5p4-3p0--|
|
|   Gtr III
|   ~~~~~~~~~~~~~~~~~~~~~~~~~~~~~~~~~~~~~~~~~
|   W                                    W
||-------------------------------------|-------------------------------------|
||o------------------------------------|-------------------------------------|
||--8b10-------------------------------|-7b9---------------------------------|
||-------------------------------------|-------------------------------------|
||o------------------------------------|-------------------------------------|
||-------------------------------------|-------------------------------------|
|
|   Gtr IV
|   ~~~~~~~~~~~~~~~~~~~~~~~~~~~~~~~~~~~~~~~~~
|   W                                    W
||-------------------------------------|-------------------------------------|
||o-8b10-------------------------------|-7b9---------------------------------|
||-------------------------------------|-------------------------------------|
||-------------------------------------|-------------------------------------|
||o------------------------------------|-------------------------------------|
||-------------------------------------|-------------------------------------|


  1.
                           To Coda
        F5G5  D5    F5G5  D5                 F5G5  D5    N.C.
      PM      PM  PM      PM  PM--|        PM      PM  PM
  S   S S S S S S S S S S S S S S S   S    S S S S S S S S S S  S S S S S
|-----------------------------------|--------------------------------------||
|-----------------------------------|-------------------------------------o||
|-----------------------------------|--------------------------------------||
|-----------------------------------|--------------------------------------||
|-------3h5---0-----3h5---0-------0-|--------3h5---0-----5-5-3------------o||
|-x---0-3h5---0---0-3h5---0---0-0-0-|------0-3h5---0---0-------h5-5p4-3p0--||
|
| ~~~~~~~~~~~~~~~~~~~~~~~~~~~~~~~~~~~~~~~~~
| W                                   W
|-----------------------------------|--------------------------------------||
|-----------------------------------|-------------------------------------o||
|-6b8-------------------------------|-5b7----------------------------------||
|-----------------------------------|--------------------------------------||
|-----------------------------------|-------------------------------------o||
|-----------------------------------|--------------------------------------||
|
| ~~~~~~~~~~~~~~~~~~~~~~~~~~~~~~~~~~~~~~~~~
| W                                   W
|-----------------------------------|--------------------------------------||
|-6b8-------------------------------|-------------------------------------o||
|-----------------------------------|-8b10---------------------------------||
|-----------------------------------|--------------------------------------||
|-----------------------------------|-------------------------------------o||
|-----------------------------------|--------------------------------------||


  2.
                                     &
         F5G5  D5    F5G5  D5
       PM      PM  PM      PM  PM--|
  S    S S S S S S S S S S S S S S S
|------------------------------------|
|------------------------------------|
|------------------------------------|
|------------------------------------|
|--------3h5---0-----3h5---0-------0-|
|-x----0-3h5---0---0-3h5---0---0-0-0-|
|
| ~~~~~~~~~~~~~~~~~~~~~~~~~~~~~~~~~~~~
| W
|------------------------------------|
|------------------------------------|
|-6b8--------------------------------|
|------------------------------------|
|------------------------------------|
|------------------------------------|
|
| ~~~~~~~~~~~~~~~~~~~~~~~~~~~~~~~~~~~~
| W
|------------------------------------|
|-9b11-------------------------------|
|------------------------------------|
|------------------------------------|
|------------------------------------|
|------------------------------------|


         F5G5  D5    N.C.
       PM      PM  PM
  S    S S S S S S S   S  S  S  S   S  S   S   S
|------------------------------------------------||
|------------------------------------------------||
|------------------------------------------------||
|------------------------------------------------||
|--------3h5---0-------5--5--3-------------------||
|------0-3h5---0---0-----------h5---5p=4---3p==0-||
|
|~~~~~~                         ~~~~~~~
| H                    S  S  S  S  +E     +E
|---------------------------15-------------------||
|--------------------/15-15----15-(15)---(15)\---||
|-5b7--------------------------------------------||
|------------------------------------------------||
|------------------------------------------------||
|------------------------------------------------||
|
|~~~~~~
| H                    H
|------------------------------------------------||
|------------------------------------------------||
|-8b10-------------------------------------------||
|------------------------------------------------||
|------------------------------------------------||
|------------------------------------------------||


 Verse
  $$
      F5G5  D5    F5G5  D5              F5G5  D5    N.C.
  Gtr I
    PM      PM  PM      PM  PM--|     PM      PM  PM
  S S S S S S S S S S S S S S S S   S S S S S S S S S S S  S  S  S S S
|---------------------------------|------------------------------------|
|---------------------------------|------------------------------------|
|---------------------------------|------------------------------------|
|---------------------------------|------------------------------------|
|-----3h5---0-----3h5---0-------0-|-----3h5---0-----5-5-3--------------|
|-x-0-3h5---0---0-3h5---0---0-0-0-|---0-3h5---0---0-------h5--5p=4-3p0-|
|
| Gtr II
| W                                 H               Q         Q
|---------------------------------|------------------------------------|
|---------------------------------|------------------------------------|
|-5-------------------------------|-3---------------5------------------|
|-5-------------------------------|-3---------------5------------------|
|---------------------------------|------------------------------------|
|---------------------------------|--------------------------12\-------|


      F5G5  D5    F5G5  D5              F5G5  D5    N.C.           C5/G
  Gtrs I, II
    PM      PM  PM      PM  PM--|     PM      PM  PM
  S S S S S S S S S S S S S S S S   S S S S S S S S S S S  S S S S S
|---------------------------------|----------------------------------|
|---------------------------------|----------------------------------|
|---------------------------------|--------------------------------5-|
|---------------------------------|--------------------------------5-|
|-----3h5---0-----3h5---0-------0-|-----3h5---0-----5-5-3------------|
|-x-0-3h5---0---0-3h5---0---0-0-0-|---0-3h5---0---0-------h5-5p4-x---|


               D.S. al Coda
               D.S. al Coda
               Bb5/FC5/N.C.
  +W           H    Q   Q
|------------|--------------||
|------------|--------------||
|-(5)--------|-3----5-------||
|-(5)--------|-3----5-------||
|------------|--------------||
|------------|---------12\--||


      F5G5  D5    F5G5  D5              F5G5  D5    N.C.
    PM      PM  PM      PM  PM--|     PM      PM  PM
  S S S S S S S S S S S S S S S S   S S S S S S S S S S S  S S S S S
|---------------------------------|----------------------------------|
|---------------------------------|----------------------------------|
|---------------------------------|----------------------------------|
|---------------------------------|----------------------------------|
|-----3h5---0-----3h5---0-------0-|-----3h5---0-----5-5-3------------|
|-x-0-3h5---0---0-3h5---0---0-0-0-|---0-3h5---0---0-------h5-5p4-3p0-|


      F5G5  D5    F5G5  D5              F5G5  D5    N.C.
  Gtrs I, II
    PM      PM  PM      PM  PM--|     PM      PM  PM
  S S S S S S S S S S S S S S S S   S S S S S S S S S S S  S S S S S
|---------------------------------|----------------------------------||
|---------------------------------|----------------------------------||
|---------------------------------|----------------------------------||
|---------------------------------|----------------------------------||
|-----3h5---0-----3h5---0-------0-|-----3h5---0-----5-5-3------------||
|-x-0-3h5---0---0-3h5---0---0-0-0-|---0-3h5---0---0-------h5-5p4-3p0-||
|
| Gtr VI
|                                   TPTPTPTPTPTPTPTPTPTPTP TPTPTPTPTP
| W                                 S S S S S S S S S S S  S S S S S
|---------------------------------|----------------------------------||
|---------------------------------|----------------------------------||
|---------------------------------|----------------------------------||
|---------------------------------|----------------------------------||
|---------------------------------|----------------------------------||
|---------------------------------|-xsxsxsxsxsxsxsxsxsxsxs=xsxsxsxsx-||


 Guitar Solo
         F5G5    D5    F5  G5  D5
  Gtrs I, II
       PM        PM  PM        PM  PM--|
    S  S S S  S  S S S  S  S S S S S S S
|----------------------------------------|
|----------------------------------------|
|----------------------------------------|
|----------------------------------------|
|--------3h5-----0------3h=5---0-------0-|
|---x--0-3h5-----0---0--3h=5---0---0-0-0-|
|
| Gtr III
|   ~~~~~~~~~~~~~~~~~~~~~~~        PM--|
|   Q         Q         Q        S S S S
|----------------------------------------|
|-[10]---------------------------6-------|
|------------[5]-------------------7-7-7-|
|----------------------[5]---------------|
|----------------------------------------|
|----------------------------------------|


      F5G5  D5      N.C.
    PM      PM    PM
  S S S S S S  S  S S  S       S    S   S   S    S  S
|-----------------------------------------------------|
|-----------------------------------------------------|
|-----------------------------------------------------|
|-----------------------------------------------------|
|-----3h5---0-------5--5-------3----------------------|
|---0-3h5---0-----0----------------h5---5p==4----3p=0-|
|
|   PM|                                 ~~~~~~~
| S S S S S S  S  S S  S      +S   +S   S  +S    S  S
|-------8-------------12b13==(12)-(12)r12-(12)-----10-|
|-6-------8-6-[6]-8-6--------------------------/10----|
|---7-7-----------------------------------------------|
|-----------------------------------------------------|
|-----------------------------------------------------|
|-----------------------------------------------------|


        F5 G5       D5       F5 G5  D5                F5  G5  Bb5 C5
      PM             PM    PM       PM     PM----|
   S  S  S  S  S     S  S  S  S S S S  S   S   S  S    Q   Q   Q   Q
|---------------------------------------------------|-----------------|
|---------------------------------------------------|-----------------|
|---------------------------------------------------|----------3---5--|
|---------------------------------------------------|--3---5---3---5--|
|--------3h=5--------0--------3h5---0-------------0-|--3---5---1---3--|
|--x--0--3h=5--------0-----0--3h5---0------0---0--0-|--3---5----------|
|
|                             ~~~          PM----|
|  S  S  S  S  T  T  S  S  S  Q        S   S   S  S    Q   Q   Q   Q
|-------10------------------------------------------|-----------------|
|-10-10----10----------16-------------15------------|-15--17--15--13--|
|-------------12p10----16-12-14---------------------|-15--17--15--12--|
|-------------------12-------------------(12)-12-12-|-----------------|
|---------------------------------------------------|-----------------|
|---------------------------------------------------|-----------------|


           F5   G5      D5    F5G5       D5
   PM----|              PM  PM           PM     PM---|
   S     S   S  S  S    S S S S S  S     S   S  S  S  S
|-------------------------------------------------------|
|-------------------------------------------------------|
|-------------------------------------------------------|
|-------------------------------------------------------|
|------------3h=5-------0-----3h5--------0------------0-|
|--0-----0---3h=5-------0---0-3h5--------0------0--0--0-|
|
|  E        +E     Q.              E        +E     S  S
|-15b17====(15)r==15b17-----------15b17====(15)r========|
|-------------------------------------------------17-14-|
|-------------------------------------------------------|
|-------------------------------------------------------|
|-------------------------------------------------------|
|-------------------------------------------------------|


        F5 G5    D5       N.C.
      PM          PM    PM
   S  S  S  S  S  S  S  S  S  S  S  S   S   S  S  S
|---------------------------------------------------|
|---------------------------------------------------|
|---------------------------------------------------|
|---------------------------------------------------|
|--------3h=5-----0--------5--5--3------------------|
|-----0--3h=5-----0-----0----------h5---5p==4--3p=0-|
|
|  S  S  S  S  S  S  S  S  S  S  S  S  +S   S  S  S
|---------------------------------------------------|
|-17-14---------------------------------------12----|
|-------15-12-15-12-------14----10-12-(12)-10----10-|
|-------------------14-11----12-10-12-(12)----------|
|---------------------------------------------------|
|---------------------------------------------------|


             F5   G5           D5               F5    G5          D5
         PM                    PM          PM                      PM          PM---------|
   S     S    S     S     S    S     S     S     S     S     S     S     S     S     S     S
|------------------------------------------------------------------------------------------------|
|------------------------------------------------------------------------------------------------|
|------------------------------------------------------------------------------------------------|
|------------------------------------------------------------------------------------------------|
|-------------3h====5----------0-----------------3h====5-----------0-----------------------0-----|
|--x-----0----3h====5----------0-----------0-----3h====5-----------0-----------0-----0-----0-----|
|
|  T  T  T T  T T   T   T T  T T  T  T  T  T  T  T  T  T  T  T  T  T  T  T  T  T  T  T  T  T  T
|-----------------[13]--------------------12h13p12-------------12h15h17p15-----------------------|
|-10h11p10-8----8------10p8----8h10-11h13----------13p11-13h15-------------13p11-----------------|
|------------10-------------10---------------------------------------------------14p12-----------|
|--------------------------------------------------------------------------------------15p14p12--|
|------------------------------------------------------------------------------------------------|
|------------------------------------------------------------------------------------------------|


  F5                      G5                      Bb5                     C5
   Q                       Q                       Q                       Q
|--------------------------------------------------------------------------------------------------||
|--------------------------------------------------------------------------------------------------||
|--------------------------------------------------3-----------------------5-----------------------||
|--3-----------------------5-----------------------3-----------------------5-----------------------||
|--3-----------------------5-----------------------1-----------------------3-----------------------||
|--3-----------------------5-----------------------------------------------------------------------||
|
|  T  T  T  T  T  T  T  T  T  T  T  T  T  T  T  T  T  T  T  T  T  T  T  T  T  T  T  T  T  T  T  T
|-------------------------------------12-13-12-----------------------------------------------------||
|-13-15-13-11----------11-13-15-13-15----------15-13-11-13-11----------------------11----11-13-11--||
|-------------14-12-14----------------------------------------14-12----------12-14----14-----------||
|-------------------------------------------------------------------15-13-15-----------------------||
|--------------------------------------------------------------------------------------------------||
|--------------------------------------------------------------------------------------------------||


 Bridge
  D5                              A/C#
  Gtrs I, II
   Q        H.                    Q        H.
|-------------------------------|--------------------------|
|-------------------------------|--------------------------|
|-------------------------------|--------------------------|
|--7----------------------------|-7------------------------|
|--5----------------------------|-4------------------------|
|-------------------------------|--------------------------|
|
| Gtr III
|  H                  +E   E Q    W
|-------------------------------|--------------------------|
|-------------------------------|--------------------------|
|-10-----------------(10)\------|--------------------------|
|-12-----------------(12)\------|--------------------------|
|-------------------------------|--------------------------|
|-------------------------------|--------------------------|
|
| Gtr V
|  S S S S +S  S +E   +H          S S S S +S  S +E  +H
|-------------------------------|--------------------------|
|------6-5-(5)-6-(6)--(6)-------|-----6-5-(5)-6-(6)-(6)----|
|-------------------------------|--------------------------|
|----7--------------------------|---7----------------------|
|--5----------------------------|-4------------------------|
|-------------------------------|--------------------------|


  C5                          G/B
  Gtrs I, II
   Q        H.                Q        H.
|---------------------------|--------------------------|
|---------------------------|--------------------------|
|---------------------------|--------------------------|
|--5------------------------|-5------------------------|
|--3------------------------|-2------------------------|
|---------------------------|--------------------------|
|
| Gtr V
|  S S S S +S  S +E  +H       S S S S +S  S +E  +H
|---------------------------|--------------------------|
|------6-5-(5)-6-(6)-(6)----|-----6-5-(5)-6-(6)-(6)----|
|---------------------------|--------------------------|
|----7----------------------|---7----------------------|
|---------------------------|--------------------------|
|-10------------------------|-9------------------------|


  D5                         A/C#
  Q        H.                Q        H.
|--------------------------|--------------------------|
|--------------------------|--------------------------|
|--------------------------|--------------------------|
|-7------------------------|-7------------------------|
|-5------------------------|-4------------------------|
|--------------------------|--------------------------|
|
| S S S S +S  S +E  +H       S S S S +S  S +E  +H
|--------------------------|--------------------------|
|-----6-5-(5)-6-(6)-(6)----|-----6-5-(5)-6-(6)-(6)----|
|--------------------------|--------------------------|
|---7----------------------|---7----------------------|
|-5------------------------|-4------------------------|
|--------------------------|--------------------------|


  C5                          G/B
   Q        H.                Q        H.
|---------------------------|--------------------------|
|---------------------------|--------------------------|
|---------------------------|--------------------------|
|--5------------------------|-5------------------------|
|--3------------------------|-2------------------------|
|---------------------------|--------------------------|
|
|  S S S S +S  S +E  +H       S S S S +S  S +E  +H
|---------------------------|--------------------------|
|------6-5-(5)-6-(6)-(6)----|-----6-5-(5)-6-(6)-(6)----|
|---------------------------|--------------------------|
|----7----------------------|---7----------------------|
|---------------------------|--------------------------|
|-10------------------------|-9------------------------|


  D5                            A/C#
           PM---------------|            PM---------------|
  Q        E     E   E  E E E   Q        E     E   E  E E E
|-----------------------------|-----------------------------|
|-----------------------------|-----------------------------|
|-----------------------------|-----------------------------|
|-7---------------------------|-7---------------------------|
|-5---------------------------|-4---------------------------|
|----------0-----0---0--0-0-0-|----------0-----0---0--0-0-0-|
|
| S S S S +S  S +E  +H          S S S S +S  S +E  +H
|-----------------------------|-----------------------------|
|-----6-5-(5)-6-(6)-(6)-------|-----6-5-(5)-6-(6)-(6)-------|
|-----------------------------|-----------------------------|
|---7-------------------------|---7-------------------------|
|-5---------------------------|-4---------------------------|
|-----------------------------|-----------------------------|


                                          D.S.S. al Dbl. Coda
  C5                             G/B
            PM---------------|            PM-----------|
   Q        E     E   E  E E E   Q        E     E   E  E  Q
|------------------------------|------------------------------||
|------------------------------|------------------------------||
|------------------------------|------------------------------||
|--5---------------------------|-5----------------------------||
|--3---------------------------|-2----------------------------||
|-----------0-----0---0--0-0-0-|----------0-----0---0--0-17\--||
|
|  S S S S +S  S +E  +H          S S S S +S  S +E  +H
|------------------------------|------------------------------||
|------6-5-(5)-6-(6)-(6)-------|-----6-5-(5)-6-(6)-(6)--------||
|------------------------------|------------------------------||
|----7-------------------------|---7--------------------------||
|------------------------------|------------------------------||
|-10---------------------------|-9----------------------------||


  &&
      F5G5  D5    F5G5  D5              F5G5  D5    N.C.
    PM      PM  PM      PM  PM--|     PM      PM  PM
  S S S S S S S S S S S S S S S S   S S S S S S S S S S S  S S S S S
|---------------------------------|----------------------------------|
|---------------------------------|----------------------------------|
|---------------------------------|----------------------------------|
|---------------------------------|----------------------------------|
|-----3h5---0-----3h5---0-------0-|-----3h5---0-----5-5-3------------|
|-x-0-3h5---0---0-3h5---0---0-0-0-|---0-3h5---0---0-------h5-5p4-3p0-|


      F5G5  D5    F5G5  D5              F5G5  D5    N.C.
    PM      PM  PM      PM  PM--|     PM      PM  PM
  S S S S S S S S S S S S S S S S   S S S S S S S S S S S  S S S S S
|---------------------------------|----------------------------------||
|---------------------------------|----------------------------------||
|---------------------------------|----------------------------------||
|---------------------------------|----------------------------------||
|-----3h5---0-----3h5---0-------0-|-----3h5---0-----5-5-3------------||
|-x-0-3h5---0---0-3h5---0---0-0-0-|---0-3h5---0---0-------h5-5p4-3p0-||


   Interlude
           F5G5  D5    F5G5  D5                F5G5  D5    N.C.
    Gtrs I, II
         PM      PM  PM      PM  PM--|       PM      PM  PM
    S    S S S S S S S S S S S S S S S   S   S S S S S S S S S S  S S S S S
||-------------------------------------|-------------------------------------|
||o------------------------------------|-------------------------------------|
||-------------------------------------|-------------------------------------|
||-------------------------------------|-------------------------------------|
||o--------3h5---0-----3h5---0-------0-|-------3h5---0-----5-5-3-------------|
||--x----0-3h5---0---0-3h5---0---0-0-0-|-----0-3h5---0---0-------h5-5p4-3p0--|
|
|   Gtr III
|   ~~~~~~~~~~~~~~~~~~~~~~~~~~~~~~~~~~~~~~~~~
|   W                                    W
||-------------------------------------|-------------------------------------|
||o------------------------------------|-------------------------------------|
||--8b10-------------------------------|-7b9---------------------------------|
||-------------------------------------|-------------------------------------|
||o------------------------------------|-------------------------------------|
||-------------------------------------|-------------------------------------|
|
|   Gtr IV
|   ~~~~~~~~~~~~~~~~~~~~~~~~~~~~~~~~~~~~~~~~~
|   W                                    W
||-------------------------------------|-------------------------------------|
||o-8b10-------------------------------|-7b9---------------------------------|
||-------------------------------------|-------------------------------------|
||-------------------------------------|-------------------------------------|
||o------------------------------------|-------------------------------------|
||-------------------------------------|-------------------------------------|


        F5G5  D5    F5G5  D5                 F5G5  D5    N.C.
      PM      PM  PM      PM  PM--|        PM      PM  PM
  S   S S S S S S S S S S S S S S S   S    S S S S S S S S S S  S S S S S
|-----------------------------------|-------------------------------------|
|-----------------------------------|-------------------------------------|
|-----------------------------------|-------------------------------------|
|-----------------------------------|-------------------------------------|
|-------3h5---0-----3h5---0-------0-|--------3h5---0-----5-5-3------------|
|-x---0-3h5---0---0-3h5---0---0-0-0-|------0-3h5---0---0-------h5-5p4-3p0-|
|
| ~~~~~~~~~~~~~~~~~~~~~~~~~~~~~~~~~~~~~~~~~
| W                                   W
|-----------------------------------|-------------------------------------|
|-----------------------------------|-------------------------------------|
|-6b8-------------------------------|-5b7---------------------------------|
|-----------------------------------|-------------------------------------|
|-----------------------------------|-------------------------------------|
|-----------------------------------|-------------------------------------|
|
| ~~~~~~~~~~~~~~~~~~~~~~~~~~~~~~~~~~~~~~~~~
| W                                   W
|-----------------------------------|-------------------------------------|
|-6b8-------------------------------|-------------------------------------|
|-----------------------------------|-8b10--------------------------------|
|-----------------------------------|-------------------------------------|
|-----------------------------------|-------------------------------------|
|-----------------------------------|-------------------------------------|


         F5G5  D5    F5G5  D5                F5G5  D5    N.C.
       PM      PM  PM      PM  PM--|       PM      PM  PM
  S    S S S S S S S S S S S S S S S   S   S S S S S S S S S S  S S S S S
|------------------------------------|------------------------------------|
|------------------------------------|------------------------------------|
|------------------------------------|------------------------------------|
|------------------------------------|------------------------------------|
|--------3h5---0-----3h5---0-------0-|-------3h5---0-----5-5-3------------|
|-x----0-3h5---0---0-3h5---0---0-0-0-|-----0-3h5---0---0-------h5-5p4-3p0-|
|
| ~~~~~~~~~~~~~~~~~~~~~~~~~~~~~~~~~~~~~~~~~
| W                                    W
|------------------------------------|------------------------------------|
|------------------------------------|------------------------------------|
|-8b10-------------------------------|-7b9--------------------------------|
|------------------------------------|------------------------------------|
|------------------------------------|------------------------------------|
|------------------------------------|------------------------------------|
|
| ~~~~~~~~~~~~~~~~~~~~~~~~~~~~~~~~~~~~~~~~~
| W                                    W
|------------------------------------|------------------------------------|
|-8b10-------------------------------|-7b9--------------------------------|
|------------------------------------|------------------------------------|
|------------------------------------|------------------------------------|
|------------------------------------|------------------------------------|
|------------------------------------|------------------------------------|


                                      1.
         F5G5  D5    F5G5  D5                 F5G5  D5    N.C.
       PM      PM  PM      PM  PM--|        PM      PM  PM
  S    S S S S S S S S S S S S S S S   S    S S S S S S S   S  S  S  S   S  S   S   S
|------------------------------------|-------------------------------------------------||
|------------------------------------|------------------------------------------------o||
|------------------------------------|-------------------------------------------------||
|------------------------------------|-------------------------------------------------||
|--------3h5---0-----3h5---0-------0-|--------3h5---0-------5--5--3-------------------o||
|-x----0-3h5---0---0-3h5---0---0-0-0-|------0-3h5---0---0-----------h5---5p=4---3p==0--||
|
| ~~~~~~~~~~~~~~~~~~~~~~~~~~~~~~~~~~~~~~~~~~                         ~~~~~~~
| W                                    H                    S  S  S  S  +E     +E
|------------------------------------|---------------------------15--------------------||
|------------------------------------|--------------------/15-15----15-(15)---(15)\---o||
|-6b8--------------------------------|-5b7---------------------------------------------||
|------------------------------------|-------------------------------------------------||
|------------------------------------|------------------------------------------------o||
|------------------------------------|-------------------------------------------------||
|
| ~~~~~~~~~~~~~~~~~~~~~~~~~~~~~~~~~~~~~~~~~~
| W                                    H                    H
|------------------------------------|-------------------------------------------------||
|-9b11-------------------------------|------------------------------------------------o||
|------------------------------------|-8b10--------------------------------------------||
|------------------------------------|-------------------------------------------------||
|------------------------------------|------------------------------------------------o||
|------------------------------------|-------------------------------------------------||


 2.
         F5G5  D5    N.C.
       PM      PM  PM
  S    S S S S S S S S   S   S    S   S   S   S   S
|------------------------------------------------------||
|------------------------------------------------------||
|------------------------------------------------------||
|------------------------------------------------------||
|--------3h5---0-----5---5---3-------------------------||
|------0-3h5---0---0-------------h5---5p==4---3p==0----||
|
|                    Gtr VI
| ~~~~               TPTPTPTPTPTP TPTPTPTPTPTPTPTPTPTP
| H                  T T T T T T  T T T T T T T T T T
|------------------------------------------------------||
|------------------------------------------------------||
|-5b7--------------------------------------------------||
|------------------------------------------------------||
|------------------------------------------------------||
|--------------------xsxsxsxsxsxs=xsxsxsxsxsxsxsxsxsx--||
|
| ~~~~
| H                  H
|------------------------------------------------------||
|------------------------------------------------------||
|-8b10-------------------------------------------------||
|------------------------------------------------------||
|------------------------------------------------------||
|------------------------------------------------------||


 Outro Solo
      F5G5    D5      F5G5    D5
  Gtrs I, II
    PM        PM    PM         PM   PM--|
  S S S  S  S S  S  S S  S  S  S S  S S  S
|------------------------------------------|
|------------------------------------------|
|------------------------------------------|
|------------------------------------------|
|-----3h=5----0-------3h=5-----0---------0-|
|-x-0-3h=5----0-----0-3h=5-----0----0-0--0-|
|
| Gtr III
| S S S  S  S S  S  S S  S  S  S S  S S  S
|----------10------10------12------10---10-|
|--------------------------12------10---10-|
|-----9h10----9h10----9h10----10-----------|
|-x-x--------------------------------------|
|-x-x--------------------------------------|
|-x-x--------------------------------------|


      F5G5    D5      N.C.
    PM        PM    PM
  S S S  S  S S  S  S S  S  S  S S  S S  S
|------------------------------------------|
|------------------------------------------|
|------------------------------------------|
|------------------------------------------|
|-----3h=5----0-------5--5--3--------------|
|---0-3h=5----0-----0---------h5-5p=4-3p=0-|
|
| S S S  S  S S  S  S S  S  S  S S  S S  S
|----------10------10------12------10---10-|
|--------------------------12------10---10-|
|-----9h10----9h10----9h10----10-----------|
|---x--------------------------------------|
|---x--------------------------------------|
|---x--------------------------------------|


       F5G5    D5      F5G5   D5
     PM         PM   PM        PM    PM--|
  S  S S  S  S  S S  S S  S S  S  S  S S  S
|-------------------------------------------|
|-------------------------------------------|
|-------------------------------------------|
|-------------------------------------------|
|------3h=5-----0------3h=5----0----------0-|
|-x--0-3h=5-----0----0-3h=5----0-----0-0--0-|
|
| S  S S  S  S  S S  S S  S S  S  S  S S  S
|---10------12-10---10---10------12-10---10-|
|---10------12-10---10---10------12-10---10-|
|------9h10-----------------9h10------------|
|-------------------------------------------|
|-------------------------------------------|
|-------------------------------------------|


        F5 G5    D5       N.C.
      PM          PM    PM
   S  S  S  S  S  S  S  S S  S  S  S  S  S  S  S
|------------------------------------------------|
|------------------------------------------------|
|------------------------------------------------|
|------------------------------------------------|
|--------3h=5-----0-------5--5--3----------------|
|-----0--3h=5-----0-----0---------h5--5p=4--3p=0-|
|
|  S  S  S  S  S  S  S  S S  S  S  S  S  S  S  S
|-10s12-15-12s10-10-10-10-8s10-10s12-12s10-------|
|-10s12-12-12s10----------8s10-10s12-12s10-15s17-|
|------------------------------------------13s15-|
|------------------------------------------------|
|------------------------------------------------|
|------------------------------------------------|


        F5 G5    D5       F5 G5    D5
      PM          PM    PM          PM    PM---|
   S  S  S  S  S  S  S  S  S  S  S  S  S  S  S  S
|-------------------------------------------------|
|-------------------------------------------------|
|-------------------------------------------------|
|-------------------------------------------------|
|--------3h=5-----0--------3h=5-----0-----------0-|
|--x--0--3h=5-----0-----0--3h=5-----0-----0--0--0-|
|
|  S  S  S  S  S  S  S  S  S  S  S  S  S  S  S  S
|-------------------------------------------------|
|-17s15-15s17-17s15-15s17-17s15-15s17-17s15-15s17-|
|-15s13-13s15-15s13-13s15-15s13-13s15-15s13-13s15-|
|-------------------------------------------------|
|-------------------------------------------------|
|-------------------------------------------------|


        F5 G5    D5       N.C.
      PM          PM    PM
   S  S  S  S  S  S  S  S  S  S  S  S  S  S S S
|-----------------------------------------------|
|-----------------------------------------------|
|-----------------------------------------------|
|-----------------------------------------------|
|--------3h=5-----0--------5--5--3--------------|
|-----0--3h=5-----0-----0----------h5--5p=4-3p0-|
|
|  S  S  S  S  S  S  S  S  S  S  E     Q
|-----------------------------------------------|
|-17s15-15s17-17s15-15s17-17s15-15--------------|
|-15s13-13s15-15s13-13s15-15s13-13--------------|
|-----------------------------------------------|
|-----------------------------------------------|
|-------------------------------------12\-------|


           F5 G5    D5       F5 G5    D5
    Gtrs I, II
         PM          PM    PM          PM    PM---|
      S  S  S  S  S  S  S  S  S  S  S  S  S  S  S  S
||---------------------------------------------------|
||o--------------------------------------------------|
||---------------------------------------------------|
||---------------------------------------------------|
||o---------3h=5-----0--------3h=5-----0-----------0-|
||----x--0--3h=5-----0-----0--3h=5-----0-----0--0--0-|
|
|   Gtr III
|     S  S  S  S  S  S  S  S  S  S  S  S  S  S  S  S
||---------------------------------------------------|
||o-/15-13----13-12----12-10-------------------------|
||------------------------------14-12----12-10----10-|
||---------12-------12-------12-------12-------12----|
||o--------------------------------------------------|
||---------------------------------------------------|
|
|   Gtr IV
|     S  S  S  S  S  S  S  S  S  S  S  S  S  S  S  S
||---------------------------------------------------|
||o--------------------------------------------------|
||--/16-14----14-12----12-10-------------------------|
||------------------------------15-14----14-12----12-|
||o--------14-------14-------14-------14-------14----|
||---------------------------------------------------|


        F5 G5   D5      N.C.
      PM        PM    PM
   S  S  S S  S S  S  S  S     S    S     S    S     S    S     S      6x
|----------------------------------------------------------------------||
|---------------------------------------------------------------------o||
|----------------------------------------------------------------------||
|----------------------------------------------------------------------||
|--------3h5----0--------5-----5----3---------------------------------o||
|-----0--3h5----0-----0------------------h5----5p====4----3p====0------||
|
|  S  S  S S  S S  S  S  T  T  T T  T  T  T T  T  T  T T  T  T  T T    6x
|----------------------------------------------------------------------||
|---------------------------------------------------------------------o||
|--9-----9-7----7------------------------------------------------------||
|----12------12---10--9-10-12-10-9-10-12-10-9-10-12-10-9-10-12-10-9----||
|---------------------------------------------------------------------o||
|----------------------------------------------------------------------||
|
|  S  S  S S  S S  S  S  H                                             6x
|----------------------------------------------------------------------||
|---------------------------------------------------------------------o||
|----------------------------------------------------------------------||
|-10----10-9----9------------------------------------------------------||
|----14------14---12-10-----------------------------------------------o||
|----------------------------------------------------------------------||



Duration Legend
---------------
W - whole; H - half; Q - quarter; E - 8th; S - 16th; T - 32nd; X - 64th; a - acciaccatura
+ - note tied to previous; . - note dotted; .. - note double dotted
Uncapitalized letters represent notes that are staccato (1/2 duration)
Irregular groupings are notated above the duration line
Duration letters will always appear directly above the note/fret number it represents the
duration for.  Duration letters with no fret number below them represent rests.  Multi-
bar rests are notated in the form Wxn, where n is the number of bars to rest for.  Low
melody durations appear below the staff

Tablature Legend
----------------
 h   - hammer-on
 p   - pull-off
 b   - bend
 pb  - pre-bend
 r   - bend release (if no number after the r, then release immediately)
 /\  - slide into or out of (from/to "nowhere")
 s   - legato slide
 S   - shift slide
 - natural harmonic
[n]  - artificial harmonic
n(n) - tapped harmonic
 ~   - vibrato
 tr  - trill
 T   - tap
 TP  - trem. picking
 PM  - palm muting
\n/  - tremolo bar dip; n = amount to dip
 \n  - tremolo bar down
 n/  - tremolo bar up
/n\  - tremolo bar inverted dip
 =   - hold bend; also acts as connecting device for hammers/pulls
 <> - volume swell (louder/softer)
 x   - on rhythm slash represents muted slash
 o   - on rhythm slash represents single note slash

Misc Legend
-----------
 |  - bar
||  - double bar
||o - repeat start
o|| - repeat end
*|  - double bar (ending)
 :  - bar (freetime)
 $  - Segno
 &  - Coda
Tempo markers -  = BPM(8/16=s8/s16), where s8 = swing 8ths, s16 = swing 16ths

Tap to rate this tab
# A B C D E F G H I J K L M N O P Q R S T U V W X Y Z