Song name
# A B C D E F G H I J K L M N O P Q R S T U V W X Y Z

Annihilator - Imperiled Eyes tab

Annihilator - Imperiled Eyes

tabbed by ol753
www.annihilatormetal.com
ol753_357lo@yahoo.co.uk

Tuning - E A D G B E


Gtr 1, Gtr 2 accentuates
              PM----|                    PM  PM|
|---------------------------------------------------------|
|---------------------------------------------------------|
|---------------------------------------------------------|
|---------------------------------------------------------|
|-7-5-7-8-7-5----------5-3-5-6-5-3------------------------|
|-------------0--0--0--------------0--\--0-6-0-0-3S6-4----|


Gtr 1
  PM--|
|------------------------|
|------------------------|
|-------------------7----|
|-------------6-8-9------|
|-------5-7-8------------|
|-4-6-7------------------|


Gtr 2
  PM--|
|------------------------------|
|------------------------------|
|------------------------10----|
|----------------9-11-12-------|
|--------8-10-11---------------|
|-7-9-10-----------------------|


Gtr 1, Gtr 2 accentuates
              PM----|                    PM  PM|
|---------------------------------------------------------|
|---------------------------------------------------------|
|---------------------------------------------------------|
|---------------------------------------------------------|
|-7-5-7-8-7-5----------5-3-5-6-5-3------------------------|
|-------------0--0--0--------------0--\--0-6-0-0-3S6-4----|


Gtr 1
  PM--|
|------------------------|
|------------------------|
|-------------------7----|
|-------------6-8-9------|
|-------5-7-8------------|
|-4-6-7------------------|


Gtr 2
  PM--|
|------------------------------|
|------------------------------|
|------------------------10----|
|----------------9-11-12-------|
|--------8-10-11---------------|
|-7-9-10-----------------------|


Gtr 1, Gtr 2 accentuates
              PM----|                    PM  PM|
|---------------------------------------------------------|
|---------------------------------------------------------|
|---------------------------------------------------------|
|---------------------------------------------------------|
|-7-5-7-8-7-5----------5-3-5-6-5-3------------------------|
|-------------0--0--0--------------0--\--0-6-0-0-3S6-4----|


Gtr 1
  PM--|
|---------------------------------------------------------|
|---------------------------------------------------------|
|-------------------7-----------7----------10-10-10-10----|
|-------------6-8-9-------6-8-9----9-11-12----------------|
|-------5-7-8---------------------------------------------|
|-4-6-7---------------------------------------------------|


Gtr 2
  PM--|
|-------------------------------------------------------------------|
|-------------------------------------------------------------------|
|------------------------10-------------10-----------13-13-13-13----|
|----------------9-11-12--------9-11-12-----12-14-15----------------|
|--------8-10-11----------------------------------------------------|
|-7-9-10------------------------------------------------------------|


Both Gtrs
              PM--------|             PM-----------------------------------|
|--------------------------------------------------------------------------|
|--------------------------------------------------------------------------|
|--------------------------------------------------------------------------|
|-------------------------------------------------------------------8------|
|-7-5-7-8-7-5-------------5-3-5-6-5-3-------------7-5-7-8-7-6-7-6-5-6------|
|-------------0-0-0-0-0-0-------------0-0-0-0-0-0--------------------------|


|------------------------|
|------------------------|
|------------------------|
|-------------------4----|
|-5-4-3-4-3-2-3-2-1-2----|
|------------------------|


              PM--------|             PM---------------------------------|
|------------------------------------------------------------------------|
|------------------------------------------------------------------------|
|------------------------------------------------------------------------|
|-------------------------------------------------------------------8----|
|-7-5-7-8-7-5-------------5-3-5-6-5-3-------------7-5-7-8-7-6-7-6-5-6----|
|-------------0-0-0-0-0-0-------------0-0-0-0-0-0------------------------|


Both Gtrs
|----------------|
|-------4--------|
|-----3---3------|
|---6-------6----|
|-3--------------|
|----------------|


Both Gtrs
              PM--------|             PM---------------------------------|
|------------------------------------------------------------------------|
|------------------------------------------------------------------------|
|------------------------------------------------------------------------|
|-------------------------------------------------------------------8----|
|-7-5-7-8-7-5-------------5-3-5-6-5-3-------------7-5-7-8-7-6-7-6-5-6----|
|-------------0-0-0-0-0-0-------------0-0-0-0-0-0------------------------|


Both Gtrs
|------------------|
|-------4----------|
|-----3---4--------|
|---6-------6------|
|-3-----------3----|
|------------------|


Both Gtrs
        PM|   PM       PM|            PM|   PM       PM----------------|
|----------------------------------------------------------------------|
|----------------------------------------------------------------------|
|----------------------------------------------------------------------|
|-----------2---3------------4-3----------2---3------------------------|
|--2--5-----0---1-2--5-----3-2-1-2--5-----0---1-2--5-----4-3-0---------|
|-\0--3-0-0---0---0--3-0-0-1-----0--3-0-0---0---0--3-0-0-------4-3-0---|


      PM|   PM       PM|            PM|   PM
|--------------------------------------------------|
|--------------------------------------------------|
|--------------------------------------------------|
|---------2---3------------4-3----------2---3------|
|-2-5-----0---1-2--5-----3-2-1-2--5-----0---1-2----|
|-0-3-0-0---0---0--3-0-0-1-----0--3-0-0---0---0----|


Gtr 1
   PM------------------------------------------------|         PM|         PM|         PM----------|
|--------------------------------------------------------------------------------------------------|
|-------------------------------------------------------17-17-------16-16-------15-15-------14-14--|
|-------------------------------------------17-17-15-15-------14-14-------13-13-------12-12--------|
|-------------------15-15-------17-17-15-15--------------------------------------------------------|
|-------14-14-13-13-------15-15--------------------------------------------------------------------|
|-12-12--------------------------------------------------------------------------------------------|


   PM|         PM|         PM|         PM|         PM|         PM|
|-------------------------------------------------------------------------------|
|-------------------------------------------------------------------------------|
|-------17-17-------16-16-------15-15-------------------------------------------|
|-15-15-------14-14-------13-13-------------17-17-------16-16-------15-15-13----|
|-------------------------------------15-15-------14-14-------13-13-------11----|
|-------------------------------------------------------------------------------|


Gtr 2
   PM------------------------------------------------|         PM|         PM|         PM----------|
|--------------------------------------------------------------------------------------------------|
|-------------------------------------------------------20-20-------19-19-------18-18-------17-17--|
|-------------------------------------------20-20-18-18-------17-17-------16-16-------15-15--------|
|-------------------18-18-------20-20-18-18--------------------------------------------------------|
|-------17-17-16-16-------18-18--------------------------------------------------------------------|
|-15-15--------------------------------------------------------------------------------------------|


   PM|         PM|         PM|         PM|         PM|         PM|
|-------------------------------------------------------------------------------|
|-------------------------------------------------------------------------------|
|-------20-20-------19-19-------18-18-------------------------------------------|
|-18-18-------17-17-------16-16-------------20-20-------19-19-------18-18-13----|
|-------------------------------------18-18-------17-17-------16-16-------11----|
|-------------------------------------------------------------------------------|


Verse
Both Gtrs
       PM|   PM       PM|            PM|   PM       PM----------------|
|---------------------------------------------------------------------|
|---------------------------------------------------------------------|
|---------------------------------------------------------------------|
|----------2---3------------4-3----------2---3------------------------|
|-2--5-----0---1-2--5-----3-2-1-2--5-----0---1-2--5-----4-3-0---------|
|-0--3-0-0---0---0--3-0-0-1-----0--3-0-0---0---0--3-0-0-------4-3-0---|


      PM|   PM       PM|            PM|   PM       PM----|
|-----------------------------------------------------------------|
|-----------------------------------------------------------------|
|-----------------------------------------------------------------|
|---------2---3------------4-3----------2---3--------------3------|
|-2-5-----0---1-2--5-----3-2-1-2--5-----0---1-2--5---3-3---1-2----|
|-0-3-0-0---0---0--3-0-0-1-----0--3-0-0---0---0--3-0-1-1-0---0----|


      PM|   PM       PM|            PM|   PM       PM-------------------|
|-----------------------------------------------------------------------|
|-----------------------------------------------------------------------|
|-----------------------------------------------------------------------|
|---------2---3------------4-3----------2---3---------------------------|
|-2-5-----0---1-2--5-----3-2-1-2--5-----0---1-2--5-----4-3-0------------|
|-0-3-0-0---0---0--3-0-0-1-----0--3-0-0---0---0--3-0-0-------4-3-0------|


      PM|   PM       PM|            PM|   PM       PM----|
|---------------------------------------------------------------|
|---------------------------------------------------------------|
|---------------------------------------------------------------|
|---------2---3------------4-3----------2---3--------------3----|
|-2-5-----0---1-2--5-----3-2-1-2--5-----0---1-2--5---3-3---1----|
|-0-3-0-0---0---0--3-0-0-1-----0--3-0-0---0---0--3-0-1-1-0------|


Gtr 1
riff 1
|---------------------------------------------------------------------|
|---------------------------------------------------------------------|
|-------------------------------2tr3-------------2tr3-----------------|
|-2--5--9-9-9-9-------------------------------------------------------|
|-0--3--7-7-7-7--5-5-5-7--8--7----------8--7--5----------8--7--5--3---|
|----------------3-3-3-5--6--5----------6--5--3----------6--5--3--1---|


|--7-10-9-----|
|-------------|
|-------------|
|-------------|
|-------------|
|----------\--|


Gtr 2
|-------------------------------------------------------------------------|
|-------------------------------------------------------------------------|
|-----------------------------------5tr7-------------5tr7-----------------|
|-2--5--12-12-12-12-------------------------------------------------------|
|-0--3--10-10-10-10--5-5-5-7--8--7----------8--7--5----------8--7--5--3---|
|--------------------3-3-3-5--6--5----------6--5--3----------6--5--3--1---|


|-10-14-12----|
|-------------|
|-------------|
|-------------|
|-------------|
|-----------\-|


Both Gtrs
Pre Chorus
play twice
                           PM----|
|-------------------------------------|
|-------------------------------------|
|-------------------------------------|
|---4--------4-5---4------------------|
|-4-2------4-2-3-4-2-------0-0-0-0----|
|-2--------2-----2--------------------|


|--------------------------------|
|--------------------------------|
|--------------------------------|
|---4--------4-5---4-------------|
|-4-2------4-2-3-4-2----7---7----|
|-2--------2-----2------5---4----|


Chorus
Both Gtrs
play twice
  PM--------------------|       PM---------------------------------|
|------------------------------------------------------------------|
|------------------------------------------------------------------|
|------------------------------------------------------------------|
|-------------------------5--2-------------------------------------|
|-------------------------3--0--------------------------2-2-2------|
|-5-2-2-5-2-2-5-2-2-5-2-2-------5-2-2-5-2-2-5-2-2-5-2-2------------|


  PM--------------------|       PM------------------------|
|---------------------------------------------------------|
|---------------------------------------------------------|
|---------------------------------------------------------|
|-------------------------5--2----------------------------|
|-------------------------3--0------------------5--6------|
|-5-2-2-5-2-2-5-2-2-5-2-2-------5-2-2-5-2-2-5-2-3--4------|


Gtr 1
|-------0---------------------------|
|-----0------------------------0----|
|---5------------------------5------|
|-4------------------------4--------|
|------------------------6----------|
|-----------------------------------|


Gtr 2
|-------0---------------------------|
|-----0------------------------0----|
|---8------------------------8------|
|-7------------------------7--------|
|------------------------9----------|
|-----------------------------------|


Gtr 1
|-------0-----------2-----------3-----------2--------|
|-----0---0-------0---0-------0---0-------0---0------|
|---5-------5---5-------5---5-------5---5-------5----|
|-4-----------4-----------4-----------4--------------|
|----------------------------------------------------|
|----------------------------------------------------|


Gtr 2
|-------3-----------5-----------7-----------5--------|
|-----0---0-------0---0-------0---0-------0---0------|
|---8-------8---8-------8---8-------8---8-------8----|
|-7-----------7-----------7-----------7--------------|
|----------------------------------------------------|
|----------------------------------------------------|


Gtr 1
|--------------------------------------------|
|--------------------------------------------|
|--------------------------------------------|
|-4--------------------------5-5-5------4----|
|-3----------------2-4p2-4-4-3-3-3----3------|
|-2----------------0-2p0-2-2--------2--------|

Gtr 2
|--------------------------------------------|
|--------------------------------------------|
|--------------------------------------------|
|-----4----------------------5-5-5------4----|
|---3--------------2-4p2-4-4-3-3-3----3------|
|-2----------------0-2p0-2-2--------2--------|


Both Gtrs
|-------------------------------------------|
|-------------------------------------------|
|-------6-----------------------------------|
|----5--4--5-------2--4--4S5-4---------4----|
|-4--3-----3-------0--2--2S3-2---0---3------|
|-2--------------------------------2--------|


Gtr 1
Clean
|-------------------------|
|-------------------------|
|-------------------------|
|-----4----------------4--|
|---3----------------3----|
|-2----------------2------|

Gtr 2
Clean
|-------------------------|
|-------------------------|
|-------------------------|
|-----4----------------7--|
|---3----------------6----|
|-2----------------5------|

Bass solo

Gtr 1
|-------0-----------2-----------3-----------2---|
|-----0---0-------0---0-------0---0-------0-----|
|---5-------5---5-------5---5-------5---5-------|
|-4-----------4-----------4-----------4---------|
|-----------------------------------------------|
|-----------------------------------------------|


Gtr 2
|-------3-----------5-----------7-----------5---|
|-----0---0-------0---0-------0---0-------0-----|
|---8-------8---8-------8---8-------8---8-------|
|-7-----------7-----------7-----------7---------|
|-----------------------------------------------|
|-----------------------------------------------|


Gtr 1
|----------|
|----------|
|-[11]\----|
|----------|
|----------|
|----------|

Gtr 2
|----------|
|----------|
|-[14]\----|
|----------|
|----------|
|----------|


Both Gtrs
|-------------------------------------------|
|-------------------------------------------|
|-------6-----------------------------------|
|----5--4--5-------2--4--4S5-4---------4----|
|-4--3-----3-------0--2--2S3-2---0---3------|
|-2--------------------------------2--------|


|---------|
|---------|
|---------|
|---------|
|-8--7----|
|-6--5----|


Gtr 3
|---------|
|---------|
|---------|
|---------|
|---------|
|-0\n-----|


Both Gtrs
  PM|            PM-------------------------------------|
|-------------------------------------------------------|
|-------------------------------------------------------|
|-------------------------------------------------------|
|-----7------------------------5-------------8---8------|
|-----5---7--8-----------------3---5---8-8-8-6---6------|
|-0-0-----5--6-6-5-3-6-5-3-0-0-----3---6-6-6------------|


  PM|          PM---------------------------------------------|
|-------------------------------------------------------------|
|-------------------------------------------------------------|
|-------------------------------------------------------------|
|-----7--------------------------------------------8---8------|
|-----5---7--8-------------------------------------6---6------|
|-0-0-----5--6-6-5-3-6-5-3-\-\-\-\-\-\-\-\-\-\-\--------------|


Gtr 1
  PM|          PM-------------------------------------------------|
|-----------------------------------------------------------------|
|-----------------------------------------------------------------|
|-----------------------------------------------------------------|
|-----7-------------------------------------------------8---8-----|
|-----5---7--8-------------3-3-3-3-3-3-6-6-6-6-6-6-5--5-6---6-----|
|-0-0-----5--6-6-5-3-6-5-3----------------------------------------|


Gtr 2
  PM|          PM-------------------------------------------------------|
|-----------------------------------------------------------------------|
|-----------------------------------------------------------------------|
|-----------------------------------------------------------------------|
|-----7-------------------------------------------------------8---8-----|
|-----5---7--8-------------6-6-6-6-6-6-10-10-10-10-10-10-8--8-6---6-----|
|-0-0-----5--6-6-5-3-6-5-3----------------------------------------------|


Both Gtrs
  PM|          PM------------------------------------------------|
|----------------------------------------------------------------|
|----------------------------------------------------------------|
|----------------------------------------------------------------|
|-----7------------------------------------------8--8--8--8------|
|-----5---7--8-----------------------------------6--6--6--6------|
|-0-0-----5--6-6-5-3-6-5-3-\-\-\-\-\-\-\-\-\-\-\-----------------|


Repeat Verse


Gtr 1
|-------------------------------------------------------------------------|
|-------------------------------------------------------------------------|
|-----------------------------------5tr7-------------5tr7-----------------|
|-2--5--12-12-12-12-------------------------------------------------------|
|-0--3--10-10-10-10--5-5-5-7--8--7----------8--7--5----------8--7--5--3---|
|--------------------3-3-3-5--6--5----------6--5--3----------6--5--3--1---|


|-10-14-12----|
|-------------|
|-------------|
|-------------|
|-------------|
|-----------\-|


Gtr 2
|---------------------------------------------------------------------|
|---------------------------------------------------------------------|
|-------------------------------2tr3-------------2tr3-----------------|
|-2--5--9-9-9-9-------------------------------------------------------|
|-0--3--7-7-7-7--5-5-5-7--8--7----------8--7--5----------8--7--5--3---|
|----------------3-3-3-5--6--5----------6--5--3----------6--5--3--1---|


|--7-10-9-----|
|-------------|
|-------------|
|-------------|
|-------------|
|----------\--|


Repeat Pre Chorus
Repeat Chorus


Gtr 1
|-8----10----12----10-------|
|---10----12----13----12----|
|---------------------------|
|---------------------------|
|---------------------------|
|---------------------------|


Gtr 1
play 3 times
|-8----10----12----10----8----10----12----14-------|
|---10----12----13----12---10----12----13----16----|
|--------------------------------------------------|
|--------------------------------------------------|
|--------------------------------------------------|
|--------------------------------------------------|


4th time
|-8----10----12----10----8----10----12----14\------|
|---10----12----13----12---10----12----13----------|
|--------------------------------------------------|
|--------------------------------------------------|
|--------------------------------------------------|
|--------------------------------------------------|


Gtr 2
play 3 times
|-12----14----15----14----12----14----15----17-------|
|----13----15----17----15----13----15----17----19----|
|----------------------------------------------------|
|----------------------------------------------------|
|----------------------------------------------------|
|----------------------------------------------------|


4th time
|-12----14----15----14----12----14----15----17\------|
|----13----15----17----15----13----15----17----------|
|----------------------------------------------------|
|----------------------------------------------------|
|----------------------------------------------------|
|----------------------------------------------------|


Both Gtrs
|--------------------------------------------------------------|
|---------2-3-----------------------------2-3------------------|
|-----4-------4-2-4---2---------------4-------4-2-4----/16\----|
|-------4-----------5---4-5-2-4---------4----------------------|
|-2-5---------------------------5-2-5--------------------------|
|--------------------------------------------------------------|


|--------------------------------------------------------------------|
|---------2-3-----------------------------2-3------------------------|
|-----4-------4-2-4---2---------------4-------4-2-4---2--------------|
|-------4-----------5---4-5-2-4---------4-----------5---4-5-2-4------|
|-2-5---------------------------5-2-5---------------------------5----|
|--------------------------------------------------------------------|


|--------------------------------------------------------------------|
|---------5-6-----------------------------5-6------------------------|
|-----7-------7-5-7---5---------------7-------7-5-7---5--------------|
|-------7-----------8---7-8-5-7---------7-----------8---7-8-5-7------|
|-5-8---------------------------8-5-8---------------------------8----|
|--------------------------------------------------------------------|


|------------------------------------------------------------------------------------------|
|------------9-10---------------------------------------9-10-------------------------------|
|------11---------11-9-11----9--------------------11---------11-9-11----9------------------|
|---------11--------------12---11-12-9-11------------11--------------12---11-12-9-11-------|
|-9-12------------------------------------12-9-12------------------------------------12----|
|------------------------------------------------------------------------------------------|


Gtr 1
|-----7-12p7-10p7-----10p7----7-------------------------------------|
|---8-------------8-7------10---10-8-7---8p7---7S5-----5S3----------|
|-9------------------------------------9-----9-----7p5-----5p4------|
|--------------------------------------------------------------2----|
|--------------------------------------------------------------0----|
|-------------------------------------------------------------------|


Gtr 2
|-------10-15p10-13p10-------13p10----10---------------------------------------------|
|----11----------------11-10-------13----13-11-10----11p10----10S8------8S6----------|
|-12----------------------------------------------12-------12------10p8-----8p7------|
|-------------------------------------------------------------------------------2----|
|-------------------------------------------------------------------------------0----|
|------------------------------------------------------------------------------------|


Both Gtrs
                                 PM-------------------|
|-----------------------------------------------------|
|-----------------------------------------------------|
|-----------------------------------------------------|
|------------7---7\-----2---2-------------------------|
|-9---9\-----5---5\-----0---0-------------------------|
|-7---7\-------------------------0-0-0-0-0-0-0-0------|

         PM|          PM|
|----------------------------------------------------|
|----------------------------------------------------|
|----------------------------------------------------|
|------------7----7\-----2---2-------9-9-9-9-9-------|
|-9---9\-----5----5\-----0---0-------7-7-7-7-7--7----|
|-7---7\----------------------------------------5----|


                                 PM-------------------|
|-----------------------------------------------------|
|-----------------------------------------------------|
|-----------------------------------------------------|
|------------7---7\-----2---2-------------------------|
|-9---9\-----5---5\-----0---0-------------------------|
|-7---7\-------------------------0-0-0-0-0-0-0-0------|


         PM|          PM|
|----------------------------------------------------|
|----------------------------------------------------|
|----------------------------------------------------|
|------------7----7\-----2---2-------9-9-9-9-9-9-----|
|-9---9\-----5----5\-----0---0-------7-7-7-7-7-7-----|
|-7---7\---------------------------------------------|


Gtr 3
|-------------------------------22b25-----------19----19----------|
|-22b24------------22pb24r22p19--------------------22----22b24----|
|-----------------------------------------------------------------|
|-----------------------------------------------------------------|
|-----------------------------------------------------------------|
|-----------------------------------------------------------------|


                           PM  PM
|--------7-------------------------9b10-----7h9p7----7---------------|
|----------7h10---7--------------7----------------10---10-7-10b12----|
|-9b11----------9---10p9p7---9---------------------------------------|
|--------------------------9---9-------------------------------------|
|--------------------------------------------------------------------|
|--------------------------------------------------------------------|


                                                              PM--|
|-7-10-14-10-7-9-10-7-9----9---------------------------------------------|
|-----------------------10---10p7------7---------------------------------|
|---------------------------------10-9---10p9p7---9---[6]----------------|
|-----------------------------------------------9---9---------7-----9----|
|---------------------------------------------------------------9-7------|
|------------------------------------------------------------------------|


   PM------------------------------------------------------------------------------------------------------------------|
|-------------14h15p14h15p14----14-------------14h15h18p15p14---14-----------------------------------------------------|
|----------------------------17----17-14h15h18---------------------17-15-14-15-17-15p14S12-14p12S10-12p10S8-10p8S7-10--|
|----------16----------------------------------------------------------------------------------------------------------|
|-------16-------------------------------------------------------------------------------------------------------------|
|-14-17----------------------------------------------------------------------------------------------------------------|
|----------------------------------------------------------------------------------------------------------------------|


Repeat Verse
Repeat Riff 1
Repeat Pre Chorus
Repeat Chorus


Gtr 3
|---------|
|---------|
|---------|
|---------|
|---------|
|-0\n-----|


Both Gtrs
  PM|            PM-------------------------------------|
|-------------------------------------------------------|
|-------------------------------------------------------|
|-------------------------------------------------------|
|-----7------------------------5-------------8---8------|
|-----5---7--8-----------------3---5---8-8-8-6---6------|
|-0-0-----5--6-6-5-3-6-5-3-0-0-----3---6-6-6------------|


  PM|          PM---------------------------------------------|
|-------------------------------------------------------------|
|-------------------------------------------------------------|
|-------------------------------------------------------------|
|-----7--------------------------------------------8---8------|
|-----5---7--8-------------------------------------6---6------|
|-0-0-----5--6-6-5-3-6-5-3-\-\-\-\-\-\-\-\-\-\-\--------------|


  PM|          PM-------------------------------------------------|
|-----------------------------------------------------------------|
|-----------------------------------------------------------------|
|-----------------------------------------------------------------|
|-----7-------------------------------------------------8---8-----|
|-----5---7--8-------------3-3-3-3-3-3-6-6-6-6-6-6-5--5-6---6-----|
|-0-0-----5--6-6-5-3-6-5-3----------------------------------------|


  PM|         PM--------------------------------------------|
|-----------------------------------------------------------|
|-----------------------------------------------------------|
|-----------------------------------------------------------|
|-----7------------------------------------------8--8-------|
|-----5---7-8------------------------------------6--6-------|
|-0-0-----5-6-6-5-3-6-5-3-\-\-\-\-\-\-\-\-\-\-\-------------|


  PM------------------|       PM------------------------------------|
|-------------------------------------------------------------------|
|-------------------------------------------------------------------|
|-------------------------------------------------------------------|
|-----------------------8--8-------------------------------8--8-----|
|-----------------------6--6--3-3-3-3-3-3-6-6-6-6-6-6-5--5-6--6-----|
|-\-\-\-\-\-\-\-\-\-\-\---------------------------------------------|


  PM------------------------------|
|---------------------------------|
|---------------------------------|
|---------------------------------|
|-----------------------8--8------|
|-----------------------6--6------|
|-\-\-\-\-\-\-\-\-\-\-\-----------|


Tablature Legend
----------------
 h   - hammer-on
 p   - pull-off
 b   - bend
 pb  - pre-bend
 r   - bend release (if no number after the r, then release immediately)
 /\  - slide into or out of (from/to "nowhere")
 s   - legato slide
 S   - shift slide
  - natural harmonic
[n]  - artificial harmonic
n(n) - tapped harmonic
 ~   - vibrato
 tr  - trill
 T   - tap
 TP  - trem. picking
 PM  - palm muting
\n/  - tremolo bar dip; n = amount to dip
 \n  - tremolo bar down
 n/  - tremolo bar up
/n\  - tremolo bar inverted dip
 =   - hold bend; also acts as connecting device for hammers/pulls
 <>  - volume swell (louder/softer)
 x   - on rhythm slash represents muted slash
 o   - on rhythm slash represents single note slash

Misc Legend
-----------
 |  - bar
||  - double bar
||o - repeat start
o|| - repeat end
*|  - double bar (ending)
 :  - bar (freetime)
 $  - Segno
 &  - Coda
Tempo markers -  = BPM(8/16=s8/s16), where s8 = swing 8ths, s16 = swing 16ths
Tap to rate this tab
# A B C D E F G H I J K L M N O P Q R S T U V W X Y Z