Song name
# A B C D E F G H I J K L M N O P Q R S T U V W X Y Z

Annihilator - Sixes And Sevens tab

Annihilator - Sixes And Sevens

tabbed by 
ol753_357lo@yahoo.co.uk

Tuning - E A D G B E


Gtrs 2 & 3
|---|---------0-0-----------------0-0-------0-0-----------------0-0----|
|---|------11-----11-----------11-----11--------11-----------11--------|
|---|---10-----------10-----10-----------10--------10-----10-----------|
|-8-|-8-----------------8-8---------------------------8-8--------------|
|---|------------------------------------------------------------------|
|---|------------------------------------------------------------------|


Gtr 1
play twice
|---|--------------------------|
|---|--------------------------|
|---|--------------------------|
|---|--------------------------|
|-8-|-8----------------4--4----|
|-6-|-6----------------2--2----|


|-----------------------------------|
|-----------------------------------|
|-----------------------------------|
|---------------------6--5--3-------|
|-2--2----------------4--3--1--4----|
|-0--0-------------------------2----|


Gtrs 2 & 3
play twice
|---|---------0-0-----------------0-0---------------5-5-------------0-0--------|
|---|------11-----11-----------11-----11----------7-----7---------7-----7------|
|---|---10-----------10-----10-----------10-----6---------6-----6---------6----|
|-8-|-8-----------------8-8-----------------4-4-------------4-4----------------|
|---|--------------------------------------------------------------------------|
|---|--------------------------------------------------------------------------|


|---------3-3----------|
|-------5-----5--------|
|-----4---------4------|
|-2-2-------------2----|
|----------------------|
|----------------------|


Gtr 1
|---------|
|---------|
|---------|
|---------|
|-8--8----|
|-6--6----|


Gtr 2
|-------------0-0-------0-0------------|
|----------11-----11--------11---------|
|-------10-----------10--------10------|
|-8-8-8---------------------------8----|
|--------------------------------------|
|--------------------------------------|


Both Gtrs
              PM----------|              PM----------|     PM|                       PM|   PM
|--------------------------------------------------------------------------------------------|
|--------------------------------------------------------------------------------------------|
|-----10---10-----------------------------------------------------9-----10-------------------|
|-0-8---------8-0---------------------------------------------------7-0----8-0---------------|
|-----------------9-7-0-----5-----5--5-----------------5-5-----5---------------9-7-0-----5---|
|-----------------------6-6---6-5-3--3---0-3-6-5-0-3-5-----5-3-----------------------6-6---3-|


Both Gtrs
play 4 times
  PM--------------------------------|    PM|    PM|
|--------------------------------------------------------|
|--------------------------------------------------------|
|--------------------------------------------------------|
|--------------------------------------------------------|
|-------------------------------------1------8------1----|
|-0--0-0-0--0-0-0-0-0-0-0--0-0-0--0-0-3--0-0-6--0-0-3----|


Gtr 1
play twice
      PM--------|                 PM|    PM--------|    PM|
|--------------------------------------------------------------|
|--------------------------------------------------------------|
|--------------------------------------------------------------|
|--------------------------------------------------------------|
|-----------------------12------------1--------------1---------|
|-3h5-0-0-0-0-0-0-10-11-------3h5-0-0-3--0-0-0-0-0-0-3--0-0----|


      PM-------------|            PM|
|------------------------------------------------|
|------------------------------------------------|
|------------------------------------------------|
|----------------------------------------3-------|
|-----------------------12------------1--1--1----|
|-3h5-0-0-0-0-0-0-10-11-------3h5-0-0-3-----3----|


Gtr 2
play twice
        PM-------------|              PM|    PM--------|    PM|
|------------------------------------------------------------------|
|------------------------------------------------------------------|
|------------------------------------------------------------------|
|------------------------------------------------------------------|
|-10h12-------------------12----10h12-----1--------------1---------|
|-------0-0-0-0-0-0-10-11-------------0-0-3--0-0-0-0-0-0-3--0-0----|


        PM-------------|              PM|
|----------------------------------------------------|
|----------------------------------------------------|
|----------------------------------------------------|
|--------------------------------------------3-------|
|-10h12-------------------12----10h12-----1--1--1----|
|-------0-0-0-0-0-0-10-11-------------0-0-3-----3----|


Both Gtrs
|----------------------------|
|----------------------------|
|----------------------------|
|-9-9-9-9--------------------|
|-7-7-7-7---8-7-5-----3-3----|
|-----------------8---1-1----|


Gtr 1
  PM|     PM|     PM----|                 PM|     PM|     PM--|
|------------------------------------------------------------------------|
|------------------------------------------------------------------------|
|------------------------------------------------------------------------|
|-------------10----------<7>-----<5>-----------------10-----------------|
|-----7p5------8--------------<7>-----<5>-----7p5------8--------8---8----|
|-0-0-----0-0-----0-0-0-0-----------------0-0-----0-0-----0-0-0-6---6----|


Gtr 2
  PM|     PM|     PM----|                 PM|     PM|     PM--|
|-----------------------------------------------------------------------|
|-----------------------------------------------------------------------|
|-----------------------------------------------------------------------|
|-------------10----------<7>-----<5>-----------------10----------------|
|-----7p5------8--------------<7>-----<5>-----7p5------8--------5tr6----|
|-0-0-----0-0-----0-0-0-0-----------------0-0-----0-0-----0-0-0---------|


Both Gtrs
  PM|     PM|     PM----|                 PM-----------------|   PM|
|-------------------------------------------------------------------------|
|-------------------------------------------------------------------------|
|-------------------------------------------------------------------------|
|-------------10----------<7>-----<5>-------------------------------------|
|-----7p5------8--------------<7>-----<5>----------------------8-----8----|
|-0-0-----0-0-----0-0-0-0-----------------\-\-\-\-\-\-\--6-5-3---0-0-6----|


Verse
Both Gtrs
  PM|     PM|     PM----|                 PM|     PM|     PM--|
|------------------------------------------------------------------------|
|------------------------------------------------------------------------|
|------------------------------------------------------------------------|
|-------------10----------<7>-----<5>-----------------10-----------------|
|-----7p5------8--------------<7>-----<5>-----7p5------8--------8---8----|
|-0-0-----0-0-----0-0-0-0-----------------0-0-----0-0-----0-0-0-6---6----|

  PM|     PM|     PM----|                 PM|     PM|     PM--|   PM|
|--------------------------------------------------------------------------|
|--------------------------------------------------------------------------|
|--------------------------------------------------------------------------|
|-------------10----------<7>-----<5>-----------------10-------------------|
|-----7p5------8--------------<7>-----<5>-----7p5------8--------8-----8----|
|-0-0-----0-0-----0-0-0-0-----------------0-0-----0-0-----6-5-3---0-0-6----|

  PM|     PM|     PM----|                 PM|     PM|     PM--|
|-----------------------------------------------------------------------|
|-----------------------------------------------------------------------|
|-----------------------------------------------------------------------|
|-------------10----------<7>-----<5>-----------------10----------------|
|-----7p5------8--------------<7>-----<5>-----7p5------8----------------|
|-0-0-----0-0-----0-0-0-0-----------------0-0-----0-0-----0-0-0-6tr8----|


  PM|     PM|     PM----|                 PM|     PM|     PM--|   PM|
|--------------------------------------------------------------------------|
|--------------------------------------------------------------------------|
|--------------------------------------------------------------------------|
|-------------10----------<7>-----<5>-----------------10-------------------|
|-----7p5------8--------------<7>-----<5>-----7p5------8--------8-----8----|
|-0-0-----0-0-----0-0-0-0-----------------0-0-----0-0-----6-5-3---0-0-6----|


Chorus
Both Gtrs
  PM--------------------------------------|
|-----------------------------------------------------------|
|-----------------------------------------------------------|
|-----------------------------------------------------------|
|-----------------------------------------------------------|
|-----------------------------------------------5------3----|
|-0--1-0--0-0-0-0--1-0--0-0-0-0--1-0--0-0-0-5h7----3h5------|


  PM--------------------------------------|
|-------------------------------------------------------|
|-------------------------------------------------------|
|-------------------------------------------------------|
|-------------------------------------------------------|
|-------------------------------------------6-6--5-5----|
|-0--1-0--0-0-0-0--1-0--0-0-0-0--1-0--0-0-0-4-4--3-3----|


  PM--------------------------------------------|    PM--|
|--------------------------------------------------------------|
|--------------------------------------------------------------|
|--------------------------------------------------------------|
|--------------------------------------------------------------| / 3 \ triplets
|-------------------------------------------/-3-\-5--/-3-\-3---|
|-0--1-0--0-0-0-0--1-0--0-0-0-0--1-0--0-0-0-5-5-7----3-3-5-----|


  PM--------------------------------------|
|-------------------------------------------------------|
|-------------------------------------------------------|
|-------------------------------------------------------|
|-------------------------------------------------------|
|-------------------------------------------6-6--5-5----|
|-0--1-0--0-0-0-0--1-0--0-0-0-0--1-0--0-0-0-4-4--3-3----|


Both Gtrs
|----------------------------|
|----------------------------|
|----------------------------|
|-9-9-9-9--------------------|
|-7-7-7-7---8-7-5-----3-3----|
|-----------------8---1-1----|


Repeat Verse
Repeat Chorus


Both Gtrs
  PM------------------|   PM|    PM------------------|   PM|
|----------------------------------------------------------------|
|----------------------------------------------------------------|
|----------------------------------------------------------------|
|----------------------------------------------------------------|
|----------------------8-----8------------------------8-----8----|
|-0-0-0-0-0-0-0--6-5-3---0-0-6---0-0-0-0-0-0-0--6-5-3---0-0-6----|


  PM----------------------------|
|------------------------------------|
|------------------------------------|
|------------------------------------|
|------------------------------------|
|------------------------------------|
|-7-6-4-3---6-5-3-2-5-4-2-1-4-3-1----|


  PM------------------|   PM|    PM------------------|   PM|
|-----------------------------------------------------------------|
|-----------------------------------------------------------------|
|-----------------------------------------------------------------|
|-----------------------------------------------------------------|
|-----------------------8-----8------------------------8-----8----|
|-0-0-0-0-0-0-0-0-6-5-3---0-0-6--0-0-0-0-0-0-0-0-6-5-3---0-0-6----|


Gtr 1, Gtr 2 accentuates
  PM--|           PM--|           PM--|           PM|    PM|
|---------------------------------------------------------------|
|---------------------------------------------------------------|
|---------------------------------------------------------------|
|-----------------------------------------------------7---------|
|-------0h=1p0----------0h=1p0----------0h=1p0--------5------7--|
|-0-0-3--------3--0-0-3--------3--0-0-3--------3--0-0----0-0-5--|

  PM--|           PM--|
|--------------------------------------------------|
|--------------------------------------------------|
|--------------------------------------------------|
|---------------------------------7-----5----------|
|-------0h=1p0----------0h=1p0----5--7--3--5--7----|
|-0-0-3--------3--0-0-3--------3-----5-----3--5----|


Both Gtrs
  PM--|           PM--|           PM--|           PM|    PM|
|---------------------------------------------------------------|
|---------------------------------------------------------------|
|---------------------------------------------------------------|
|-----------------------------------------------------7---------|
|-------0h=1p0----------0h=1p0----------0h=1p0--------5------7--|
|-0-0-3--------3--0-0-3--------3--0-0-3--------3--0-0----0-0-5--|


  PM--|           PM--|
|-----------------------------------------------|
|-----------------------------------------------|
|-----------------------------------------------|
|---------------------------------7-----5-------|
|-------0h=1p0----------0h=1p0----5--7--3--5----|
|-0-0-3--------3--0-0-3--------3-----5-----3----|


  PM--|           PM--|           PM--|           PM|    PM|
|---------------------------------------------------------------|
|---------------------------------------------------------------|
|---------------------------------------------------------------|
|-----------------------------------------------------7---------|
|-------0h=1p0----------0h=1p0----------0h=1p0--------5------7--|
|-0-0-3--------3--0-0-3--------3--0-0-3--------3--0-0----0-0-5--|

  PM--|           PM--|
|--------------------------------------------------|
|--------------------------------------------------|
|--------------------------------------------------|
|---------------------------------7-----5----------|
|-------0h=1p0----------0h=1p0----5--7--3--5--7----|
|-0-0-3--------3--0-0-3--------3-----5-----3--5----|


Both Gtrs
play 4 times
       PM|      PM|
|-------------------------------------------|
|-------------------------------------------|
|-------------------------------------------|
|-------------------------------------------|
|-4-5------8-7------4-5-----3p2-3--8S7S8----|
|-2-3--0-0-6-5--0-0-2-3-----1p0-1--6S5S6----|


Gtr 1
play 3 times
  PM-------------------------------|
|-----------------------------------------|
|---11----12---11----12---11---9----------|
|-9----10----9----10----9----7-------7----|
|--------------------------------7-9------|
|-----------------------------------------|
|-----------------------------------------|

4th time
  PM-----------------|
|----------------------------|
|---11----12---11----12------|
|-9----10----9----10----9----|
|----------------------------|
|----------------------------|
|----------------------------|

Gtr 2
play 3 times
   PM------------------------------------|
|-------------------------------------------------|
|----14----15----14----15----14----12-------------|
|-12----13----12----13----12----10----------10----|
|-------------------------------------10-12-------|
|-------------------------------------------------|
|-------------------------------------------------|

4th time
   PM------------------|
|-------------------------------|
|----14----15----14----15-------|
|-12----13----12----13----12----|
|-------------------------------|
|-------------------------------|
|-------------------------------|


Gtr 3
joins 3rd time
   PM------------------------------------|
|-------------------------------------------------|
|----17----18----17----18----17----15-------------|
|-15----16----15----16----15----13----------13----|
|-------------------------------------13-15-------|
|-------------------------------------------------|
|-------------------------------------------------|


   PM------------------|
|-------------------------------|
|----17----18----17----18-------|
|-15----16----15----16----15----|
|-------------------------------|
|-------------------------------|
|-------------------------------|


Both Gtrs
play twice
  PM--------------------|
|----------------------------------|
|----------------------------------|
|----------------------------------|
|----------------------------------|
|-7-7-8-8-7-7-8-8-7-7-5-5-----5----|
|-------------------------5h7------|


Both Gtrs
play twice
|--------------------------------------|
|--------------------------------------|
|--------------------------------------|
|-9-9-10-10-9-9-10-10-9-9-7-7----------|
|-7-7--8--8-7-7--8--8-7-7-5-5-----5----|
|-----------------------------5h7------|


Both Gtrs
play 3 times
  PM--|        PM--|       PM--|        PM-------------|
|-----------------------------------------------------------|
|--------------------3---3----------------------------------|
|--------------------2---2--------5---5---------------------|
|-------9---9--------4---4--------5---5---------------------|
|-------7---7--2-2-2-2---2--0-0-0--------0-0-0-0-0-0-0-0----|
|-0---0-----------------------------------------------------|


4th time
  PM-|       PM--|       PM--|        PM--|
|--------------------------------------------------------------|
|------------------3--3----------------------------------------|
|------------------2--2--------5--5----------------------------|
|------9--9--------4--4--------5--5----------------------------|
|------7--7--2-2-2-2--2--0-0-0--------------3----------8--8----|
|-0--0------------------------------\-0-0-0-1----------6--6----|


Both Gtrs
  PM----|      PM|      PM|     PM--------|      PM|      PM|
|---------------------------------------------------------------------|
|---------------------------------------------------------------------|
|---------------------------------------------------------------------|
|------------------10S9------------------------------10S9-------------|
|---------10S9------8S7-----7S8-------------10S9------8S7-----8--8----|
|-0-0-0-0--8S7-0-0------0-0-5S6-0-0-0-0-0-0--8S7-0-0------0-0-6--6----|


|--------------------------|
|--------------------------|
|--------------------------|
|------------------10S9----|
|---------10S9------8S7----|
|-0-0-0-0--8S7-0-0---------|


Both Gtrs
play 3 times
  PM--|        PM--|       PM--|        PM-------------|
|-----------------------------------------------------------|
|--------------------3---3----------------------------------|
|--------------------2---2--------5---5---------------------|
|-------9---9--------4---4--------5---5---------------------|
|-------7---7--2-2-2-2---2--0-0-0--------0-0-0-0-0-0-0-0----|
|-0-0-0-----------------------------------------------------|


4th time
  PM--|       PM--|       PM--|        PM--|
|---------------------------------------------------------------|
|-------------------3--3----------------------------------------|
|-------------------2--2--------5--5----------------------------|
|-------9--9--------4--4--------5--5----------------------------|
|-------7--7--2-2-2-2--2--0-0-0--------------3----------8--8----|
|-0-0-0------------------------------\-0-0-0-1----------6--6----|


Both Gtrs
  PM----|      PM|      PM|     PM--------|      PM|      PM|
|---------------------------------------------------------------------|
|---------------------------------------------------------------------|
|---------------------------------------------------------------------|
|------------------10S9------------------------------10S9-------------|
|---------10S9------8S7-----7S8-------------10S9------8S7-----8--8----|
|-0-0-0-0--8S7-0-0------0-0-5S6-0-0-0-0-0-0--8S7-0-0------0-0-6--6----|


Gtr 3
            T                 T                    T              T        T        T        T
|-12h15h17-18p17p15p12h14h15-17p15p14----12h14h15-17p15p14p12-------------------------------------|
|-------------------------------------------------------------15-17p12----------------------------|
|----------------------------------------------------------------------14-16p12-------------16p12-|
|-------------------------------------------------------------------------------14-16p12h14-------|
|-------------------------------------------------------------------------------------------------|
|-------------------------------------------------------------------------------------------------|


|---------------------------------------12h14p12----------15h18p15----------15h17h18p17p15----17----15h16----|
|---------------------12h15p12-------------------15-12-15----------17-15-17----------------17----17-------17-|
|-[12]h16p12-------------------14-12-14----------------------------------------------------------------------|
|------------14-12-14----------------------------------------------------------------------------------------|
|------------------------------------------------------------------------------------------------------------|
|------------------------------------------------------------------------------------------------------------|


                                            PM|      PM    PM------|
|-------------14-17--15--15p14----------------------------------------------------|
|----------15------------------15-------------------------------------------------|
|-14-15-16------------------------14S11-------------------------------------------|
|---------------------------------------12-------12----12-------------------------|
|------------------------------------------14-14----14----14-13-12----12b13r12----|
|------------------------------------------------------------------15-------------|


|-----10-----10----------12------12----------12---------------------------------------------|
|-7-8----7-8----7-8-8-10----8-10-----15b17------15----15------------------------------------|
|--------------------------------------------------15----15p14p12----14----12-13-------12---|
|-----------------------------------------------------------------14----14----15-------14---|
|-------------------------------------------------------------------------------------------|
|-------------------------------------------------------------------------------------------|


|----------------------------------------------------------|
|-------------------------------12p10p8S7---7h8---7--------|
|----------12------------12---------------9-----9---7------|
|-13p12---------13p12---------------------------------9----|
|-------14------------14-----------------------------------|
|----------------------------------------------------------|


|-----12------14-------15-------17-------15------14-----12-12-12-12----|
|-7S8----8S10----10S12----12S13----10S12----8S10----7S8-----8--8--8----|
|----------------------------------------------------------------------|
|----------------------------------------------------------------------|
|----------------------------------------------------------------------|
|----------------------------------------------------------------------|


                                               PM---------------------------|
|-------------14-17--15--15p14----14-------------------------------------------------|
|----------15------------------15----15----------------------------------------------|
|-14-15-16------------------------------14S11----11----------------------------------|
|---------------------------------------------14----14-13-12----14-12----------------|
|------------------------------------------------------------14-------14-13-12-------|
|------------------------------------------------------------------------------15----|


|-----10-----10----------12------12-----------12----------------------------------------------|
|-7-8----7-8----7-8-8-10----8-10------15b17------15p12----15----------------------------------|
|------------------------------------------------------15----15p14p12----14----12-13------12--|
|---------------------------------------------------------------------14----14----15------14--|
|---------------------------------------------------------------------------------------------|
|---------------------------------------------------------------------------------------------|


Gtr 1
|---------------------------------------|
|---------------------------------------|
|-8-7------------------7-8-10-----------|
|-----10-8-7----7-8-10-------------7----|
|------------10---------------8-10------|
|---------------------------------------|

Gtr 2
|-------------------------------------------------|
|-------------------------------------------------|
|-12-10----------------------10-12-14-------------|
|-------13-12-10----10-12-13----------------10----|
|----------------13-------------------12-13-------|
|-------------------------------------------------|


Both Gtrs
|----------------------------|
|----------------------------|
|----------------------------|
|-9-9-9-9--------------------|
|-7-7-7-7---8-7-5-----3-3----|
|-----------------8---1-1----|


Repeat Verse
Repeat Chorus


Both Gtrs
  PM------------------|   PM|    PM------------------|   PM|
|-----------------------------------------------------------------|
|-----------------------------------------------------------------|
|-----------------------------------------------------------------|
|-----------------------------------------------------------------|
|-----------------------8-----8------------------------8-----8----|
|-0-0-0-0-0-0-0---6-5-3---0-0-6--0-0-0-0-0-0-0---6-5-3---0-0-6----|

  PM----------------------------|
|------------------------------------|
|------------------------------------|
|------------------------------------|
|------------------------------------|
|------------------------------------|
|-7-6-4-3---6-5-3-2-5-4-2-1-4-3-1----|


Gtr 1
  PM------------------|   PM|    PM------------------|   PM|
|-----------------------------------------------------------------|
|-----------------------------------------------------------------|
|-----------------------------------------------------------------|
|-----------------------------------------------------------------|
|-----------------------8-----8------------------------8-----8----|
|-0-0-0-0-0-0-0-0-6-5-3---0-0-6--0-0-0-0-0-0-0-0-6-5-3---0-0-6----|


Gtr 2
  PM------------------|   PM|    PM------------------|   PM|
|-----------------------------------------------------------------|
|-----------------------------------------------------------------|
|-----------------------------------------------------------------|
|-----------------------------------------------------------------|
|-----------------------8-----8--8\--------------------8-----8----|
|-0-0-0-0-0-0-0-0-6-5-3---0-0-6--6\------0-0-0-0-6-5-3---0-0-6----|


Repeat Intro


Tablature Legend
----------------
 h   - hammer-on
 p   - pull-off
 b   - bend
 pb  - pre-bend
 r   - bend release (if no number after the r, then release immediately)
 /\  - slide into or out of (from/to "nowhere")
 s   - legato slide
 S   - shift slide
  - natural harmonic
[n]  - artificial harmonic
n(n) - tapped harmonic
 ~   - vibrato
 tr  - trill
 T   - tap
 TP  - trem. picking
 PM  - palm muting
\n/  - tremolo bar dip; n = amount to dip
 \n  - tremolo bar down
 n/  - tremolo bar up
/n\  - tremolo bar inverted dip
 =   - hold bend; also acts as connecting device for hammers/pulls
 <>  - volume swell (louder/softer)
 x   - on rhythm slash represents muted slash
 o   - on rhythm slash represents single note slash

Misc Legend
-----------
 |  - bar
||  - double bar
||o - repeat start
o|| - repeat end
*|  - double bar (ending)
 :  - bar (freetime)
 $  - Segno
 &  - Coda
Tempo markers -  = BPM(8/16=s8/s16), where s8 = swing 8ths, s16 = swing 16ths
Tap to rate this tab
# A B C D E F G H I J K L M N O P Q R S T U V W X Y Z