Song name
# A B C D E F G H I J K L M N O P Q R S T U V W X Y Z

Annihilator - Dr Psycho tab

E------------------------------------------------------------------|
B---------------------------------------------------10/11--9-------|
G------------9---11--11/12--11--9/7--------------------------------|
D---------9--------------------------------10----------------------|
A----7-------------------------------------------------------------|
E------------------------------------------------------------------|

E----------------------------------------------------|
B----------------------------------------------------|
G------------9---11--11/12--11--9/7------------------|
D---------9--------------------------------10--------|
A----7-----------------------------------------------|
E----------------------------------------------------|

E----------------------------------------------------------------------------------------------|
B---------------------------------------------------10/11--9-----------8--10b^10b^10b^p--------|
G------------9---11--11/12--11--9/7------------------------9/10-----------------------------9--|
D---------9--------------------------------10--------------------------------------------------|
A----7-----------------------------------------------------------------------------------------|
E----------------------------------------------------------------------------------------------|
Tap to rate this tab
# A B C D E F G H I J K L M N O P Q R S T U V W X Y Z