Song name
# A B C D E F G H I J K L M N O P Q R S T U V W X Y Z

Annihilator - Sounds Good To Me tab

#----------------------------------PLEASE NOTE---------------------------------#
#This file is the author's own work and represents their interpretation of the #
#song. You may only use this file for private study, scholarship, or research. #
#------------------------------------------------------------------------------#

SOUNDS GOOD TO ME
As recorded by Annihilator
(From the 1993 Album SET THE WORLD ON FIRE)

Transcribed by Pete Hawthorne
	

Words and Music by Jeff Waters
Arranged by Jeff Waters & Annihilator

Gtr I (E A D G B E) - 'Jeff Waters - acoustic'
Gtr II (E A D G B E) - 'Neil Goldbreg - acoustic'
Gtr III (E A D G B E) - 'Jeff Waters - Lead'
Gtr IV (E A D G B E) - 'Lead harmony'

 Intro
  Q=160
  G#m
 4/4
  Gtr I
  Q  E E +E  E Q    +W           E E E E +E  E Q    +E  E E E E E Q
|-----------------|------------|------------------|-----4-----4---------|
|------0-(0)------|------------|-------0-(0)------|-------0-----0-------|
|----3-------3----|------------|-----3-------3----|---------3-----3-----|
|--------------4--|-(4)--------|---4-----------4--|-(4)-----------------|
|-----------------|------------|------------------|---------------------|
|-4---------------|------------|-4----------------|---------------------|
|
| Gtr II
| W                  W           W                   H        Q   E  E
|-----------------|------------|------------------|---------------------|
|-----------------|------------|------------------|-----------------11--|
|-----------------|------------|------------------|---------------------|
|-----------------|------------|------------------|------------------8--|
|-----------------|------------|------------------|---------------------|
|-----------------|------------|------------------|---------------------|


  E                                F#
  Q    E E +E  E Q    +W            E E E E +E  E Q     +E   E E E E E Q
|-------------------|------------|-------------------|-------4-----4--------|
|--------0-(0)------|------------|--------0-(0)------|---------0-----0------|
|------3-------3----|------------|------3-------3----|-----------3-----3----|
|----------------4--|-(4)--------|----4-----------4--|--(4)-----------------|
|-------------------|------------|-------------------|----------------------|
|-0-----------------|------------|--2----------------|----------------------|
|
| E Q.     +H         +W            W                   +H..              E
|-------------------|------------|-------------------|----------------------|
|---9------(9)------|-(9)--------|-11----------------|-(11)--------------14-|
|-------------------|------------|-------------------|----------------------|
|---6------(6)------|-(6)--------|--8----------------|--(8)--------------11-|
|-------------------|------------|-------------------|----------------------|
|-------------------|------------|-------------------|----------------------|


  G#m
  E  E  E E  +E  E Q     +W
|---------------------|-------------|
|---------0--(0)------|-------------|
|-------3--------3----|-------------|
|----4-------------4--|--(4)--------|
|---------------------|-------------|
|-4-------------------|-------------|
|
| E  Q.      +H          +W
|---------------------|-------------|
|---12------(12)------|-(12)--------|
|---------------------|-------------|
|----9-------(9)------|--(9)--------|
|---------------------|-------------|
|---------------------|-------------|


    E  E E E +E  E Q     +E  E E E E  E Q
|---------------------|------4-----4---------|
|----------0-(0)------|--------0------0------|
|--------3-------3----|----------3------3----|
|------4-----------4--|--(4)-----------------|
|---------------------|----------------------|
|---4-----------------|----------------------|
|
|  +W                    +H        E  E E  E
|---------------------|----------------------|
|-(12)----------------|-(12)---------14---11-|
|---------------------|----------------------|
|--(9)----------------|--(9)---------11----8-|
|---------------------|----------------------|
|---------------------|----------------------|


  E                                    C#m                 F#m
  Q    E E +E  E Q    +Q.   E E Q.     E E E E +E  E E E   +E  E E  E E E Q
|-------------------|----------------|-----0-0-(0)-------|-------------------||
|--------0-(0)------|---------0------|---4---------4-----|-----0------0------||
|------3-------3----|-------3---3----|-6-------------6-6-|-(6)---3------3----||
|----------------4--|-(4)------------|-------------------|----------4-----4--||
|-------------------|----------------|-------------------|-------------------||
|-0-----------------|----------------|-------------------|-------------------||
|
| E Q.     +H         +W               E E E E +E  E E E   +Q    H.
|-------------------|----------------|-----4-4-(4)-------|-------------------||
|---9------(9)------|-(9)------------|-5-7---------7-5-5-|-(5)---------------||
|-------------------|----------------|-------------------|-------6-----------||
|---6------(6)------|-(6)------------|-------------------|-------------------||
|-------------------|----------------|-------------------|-------------------||
|-------------------|----------------|-------------------|-------------------||


 Intro 2
  C#m              A                  B
  E E E E E E Q     E  E E E E E Q    E E E E +E  E E E    E  E E E +E  E Q
|---0-----0------|-----0-----0------|-------0-(0)-------|---------0-(0)-------|
|-----4-----4----|-------0-----0----|-----4-------4-----|-------4-------4-----|
|-------6-----6--|-(6)-----6-----6--|---4-----------4---|-----4-----------4---|
|----------------|------------------|-------------------|---------------------|
|-4--------------|--0---------------|-2---------------2-|--2------------------|
|----------------|------------------|-------------------|---------------------|
|
| W                 W                 W                   +W
|-4--------------|--5---------------|-2-----------------|-(2)-----------------|
|-5--------------|--5---------------|-4-----------------|-(4)-----------------|
|-6--------------|--6---------------|-4-----------------|-(4)-----------------|
|-6--------------|--7---------------|-4-----------------|-(4)-----------------|
|----------------|------------------|-------------------|---------------------|
|----------------|------------------|-------------------|---------------------|


  C#m              A                B
  E E E E E E Q    E E E E E E Q    E E E E +E  E E E    E  E E E +E  E Q
|---0-----0------|---0-----0------|-------0-(0)-------|--2------0-(0)-------||
|-----4-----4----|-----0-----0----|-----4-------4-----|-----4---------4-----||
|-------6-----6--|-------6-----6--|---4-----------4---|-------4---------4---||
|----------------|----------------|-------------------|---------------------||
|-4--------------|-0--------------|-2---------------2-|---------------------||
|----------------|----------------|-------------------|---------------------||
|
| W                W                W                   +W
|-4--------------|-5--------------|-2-----------------|-(2)-----------------||
|-5--------------|-5--------------|-4-----------------|-(4)-----------------||
|-6--------------|-6--------------|-4-----------------|-(4)-----------------||
|-6--------------|-7--------------|-4-----------------|-(4)-----------------||
|----------------|----------------|-------------------|---------------------||
|----------------|----------------|-------------------|---------------------||


   Verse
    C#m
    E E E E +E  E E E   E E E E +E  E E E
||--------0-(0)-------|-------0-(0)-------|
||o-----4-------4-----|-----4-------4-----|
||----6-----------6---|---6-----------6---|
||--6---------------6-|-6---------------6-|
||o-------------------|-------------------|
||--------------------|-------------------|


  E                   F#m
  E E E E +E  E E E   E E E E +E  E Q
|-------0-(0)-------|-------0-(0)------|
|-----0-------0-----|-----0-------0----|
|---1-----------1---|---3-----------3--|
|-2---------------2-|-4----------------|
|-------------------|------------------|
|-------------------|------------------|


  C#m                                     E                 B
  E E E E +E  E E E   E E E E +E  E E E   E Q  E +Q   E E   E Q  E +E  E Q
|-------0-(0)-------|-------0-(0)-------|------0-(0)------|------0-(0)-------|
|-----4-------4-----|-----4-------4-----|---4---------4---|---4--------4-2---|
|---6-----------6---|---6-----------6---|-4-------------4-|-4------------2---|
|-6---------------6-|-6---------------6-|-----------------|------------------|
|-------------------|-------------------|-----------------|------------------|
|-------------------|-------------------|-----------------|------------------|


  C#m
  E E E E +E  E E E   E E E E +E  E E E
|-------0-(0)-------|-------0-(0)-------|
|-----4-------4-----|-----4-------4-----|
|---6-----------6---|---6-----------6---|
|-6---------------6-|-6---------------6-|
|-------------------|-------------------|
|-------------------|-------------------|


  E                   F#m
  E E E E +E  E E E   E E E E +E  E Q
|-------0-(0)-------|-------0-(0)-------|
|-----0-------0-----|-----0-------0-----|
|---1-----------1---|---3-----------3---|
|-2---------------2-|-4-----------------|
|-------------------|-------------------|
|-------------------|-------------------|


  C#m                                     E                 B
  E E E E +E  E E E   E E E E +E  E E E   E Q  E +Q   E E   E Q  E +E  E Q
|-------0-(0)-------|-------0-(0)-------|------0-(0)------|------0-(0)-------||
|-----4-------4-----|-----4-------4-----|---4---------4---|---4--------4-2---||
|---6-----------6---|---6-----------6---|-4-------------4-|-4------------2---||
|-6---------------6-|-6---------------6-|-----------------|------------------||
|-------------------|-------------------|-----------------|------------------||
|-------------------|-------------------|-----------------|------------------||


 Chorus
  1.
  C#m              A                B
  E E E E E E Q    E E E E E E Q    E E E E +E  E E E    E  E E E +E  E Q
|---0-----0------|---0-----0------|-------0-(0)-------|---------0-(0)-------|
|-----4-----4----|-----0-----0----|-----4-------4-----|-------4-------4-----|
|-------6-----6--|-------6-----6--|---4-----------4---|-----4-----------4---|
|----------------|----------------|-------------------|---------------------|
|-4--------------|-0--------------|-2---------------2-|--2------------------|
|----------------|----------------|-------------------|---------------------|
|
| Gtr II
| W                W                W                   +W
|-4--------------|-5--------------|-2-----------------|-(2)-----------------|
|-5--------------|-5--------------|-4-----------------|-(4)-----------------|
|-6--------------|-6--------------|-4-----------------|-(4)-----------------|
|-6--------------|-7--------------|-4-----------------|-(4)-----------------|
|----------------|----------------|-------------------|---------------------|
|----------------|----------------|-------------------|---------------------|


  C#m              A                B
  E E E E E E Q    E E E E E E Q    E E E E +E  E E E    E  E E E +E  E Q
|---0-----0------|---0-----0------|-------0-(0)-------|--2------0-(0)--------||
|-----4-----4----|-----0-----0----|-----4-------4-----|-----4---------4-----o||
|-------6-----6--|-------6-----6--|---4-----------4---|-------4---------4----||
|----------------|----------------|-------------------|----------------------||
|-4--------------|-0--------------|-2---------------2-|---------------------o||
|----------------|----------------|-------------------|----------------------||
|
| W                W                W                   +W
|-4--------------|-5--------------|-2-----------------|-(2)------------------||
|-5--------------|-5--------------|-4-----------------|-(4)-----------------o||
|-6--------------|-6--------------|-4-----------------|-(4)------------------||
|-6--------------|-7--------------|-4-----------------|-(4)------------------||
|----------------|----------------|-------------------|---------------------o||
|----------------|----------------|-------------------|----------------------||


 Bridge
  2.
  F#m                 G#m                A                   B
  E E E E +E  E E E   E E E E +E  E Q    E E E E +E  E E E   E E E E +E  E Q
|-------0-(0)-------|-------0-(0)------|-------0-(0)-------|-------0-(0)-0-0---|
|-----0-------0-----|-----0-------0----|-----0-------0-----|-----0---------4---|
|---2-----------2---|---4-----------4--|---6-----------6---|---6-----------4---|
|-4---------------4-|-6----------------|-----------------7-|-4-----------------|
|-------------------|------------------|-------------------|-------------------|
|-------------------|------------------|-------------------|-------------------|


  F#m                 G#m                A                   B
  E E E E +E  E E E   E E E E +E  E Q    E E E E +E  E E E    W
|-------0-(0)-------|-------0-(0)------|-------0-(0)-------|-^0----||
|-----0-------0-----|-----0-------0----|-----0-------0-----|-^4----||
|---2-----------2---|---4-----------4--|---6-----------6---|-^4----||
|-4---------------4-|-6----------------|-----------------7-|-------||
|-------------------|------------------|-------------------|-------||
|-------------------|------------------|-------------------|-------||


   Chorus 2
    C#m              A                B
    E E E E E E Q    E E E E E E Q    E E E E +E  E E E    E  E E E +E  E Q
||----0-----0------|---0-----0------|-------0-(0)-------|---------0-(0)------|
||o-----4-----4----|-----0-----0----|-----4-------4-----|-------4-------4----|
||--------6-----6--|-------6-----6--|---4-----------4---|-----4-----------4--|
||-----------------|----------------|-------------------|--------------------|
||o-4--------------|-0--------------|-2---------------2-|--2-----------------|
||-----------------|----------------|-------------------|--------------------|
|
|   Gtr II
|   W                W                W                   +W
||--4--------------|-5--------------|-2-----------------|-(2)----------------|
||o-5--------------|-5--------------|-4-----------------|-(4)----------------|
||--6--------------|-6--------------|-4-----------------|-(4)----------------|
||--6--------------|-7--------------|-4-----------------|-(4)----------------|
||o----------------|----------------|-------------------|--------------------|
||-----------------|----------------|-------------------|--------------------|


  C#m              A                B
  E E E E E E Q    E E E E E E Q    E E E E +E  E E E
|---0-----0------|---0-----0------|-------0-(0)-------|
|-----4-----4----|-----0-----0----|-----4-------4-----|
|-------6-----6--|-------6-----6--|---4-----------4---|
|----------------|----------------|-------------------|
|-4--------------|-0--------------|-2---------------2-|
|----------------|----------------|-------------------|
|
| W                W                W
|-4--------------|-5--------------|-2-----------------|
|-5--------------|-5--------------|-4-----------------|
|-6--------------|-6--------------|-4-----------------|
|-6--------------|-7--------------|-4-----------------|
|----------------|----------------|-------------------|
|----------------|----------------|-------------------|


 1.                     2.
   E  E E E +E  E Q      E  E E E +E  E  E E
|--2------0-(0)-------||-0------0-(0)------0--||
|-----4---------4----o||----4---------4-------||
|-------4---------4---||------4----------4----||
|---------------------||----------------------||
|--------------------o||----------------------||
|---------------------||----------------------||
|
|                        Gtr III
| +W                     H.              E E
|-(2)-----------------||----------------------||
|-(4)----------------o||----------------/x-x--||
|-(4)-----------------||----------------------||
|-(4)-----------------||----------------------||
|--------------------o||----------------------||
|---------------------||----------------------||


 Solo ~ Jeff Waters
  A
   E     E E E   E       E   +E  E      E  E E  E   E  E +E  E
|------------------------------------|-------------------------|
|--4-----4---4-----------2---(2)-----|--4--4----4------2-(2)---|
|--2-----2---2-----------2---(2)-----|--2--2----2------2-(2)---|
|------------------------------------|-------------------------|
|------------------------------------|-------------------------|
|------------------------------------|-------------------------|
|
|  ~~~~~~                                       ~~~~~~~
|  H            +E      +E    E  S S   +Q    E  E  +E  E  E  E
|------------------------------------|-------------------------|
|-[5]b7========([5])b7r([5])---------|-------------------------|
|-----------------------------4--4h6-|-(6)---------------------|
|------------------------------------|-------4p[2]-(2)---------|
|------------------------------------|-----------------2--3--4-|
|------------------------------------|-------------------------|


  C#m
   E E E E +E  E E    E       E  E E  E  +E  E Q
|--------0-(0)-------------|----------0--(0)-------|
|------0-------0-----------|-------0---------0-----|
|----8-----------8---------|-----8-------------8---|
|-11-----------------11----|-11--------------------|
|--------------------------|-----------------------|
|--------------------------|-----------------------|
|
|                                     ~~~~~~~
|  E E E E  E  E E   +E      +E  E E  E  +Q    Q
|--------------------------|-----------------------|
|--------5-------4b6r(4)b6r|=(4)-------------------|
|-----------6--6-----------|-----4---[6]-(6)---6\--|
|--2-4-6-------------------|-------6---------------|
|--------------------------|-----------------------|
|--------------------------|-----------------------|


  A
  E  E     E E E    E    +E     E      E    E    E    E    E    E   +E     E
|-----------------------------------|----------------------------------------|
|-4--4-------4------2----(2)--------|--4----4---------4---------2---(2)------|
|-2--2-------2------2----(2)--------|--2----2---------2---------2---(2)------|
|-----------------------------------|----------------------------------------|
|-----------------------------------|----------------------------------------|
|-----------------------------------|----------------------------------------|
|
|    ~~~~~~
| E  Q.        S  S S  S  S  S  S S    S S  S S  S S  S S  S S  S S  S  S  E
|--------------9-------------9-12p9-|-11p9----9------------------------------|
|---12b14========12p9-----9---------|------12---12p9----9h10p9----9----------|
|---------------------11------------|----------------11--------11---11--9-11-|
|-----------------------------------|----------------------------------------|
|-0---------------------------------|----------------------------------------|
|-----------------------------------|----------------------------------------|


  C#m
    E       E  E    E    +E  E Q        E  E  E E +E     E  Q
|-------------------0----(0)---------|----------0-(0)------------|
|--------------0-------------0-------|--------0----------0-------|
|-----------8------------------8-----|-----8----------------8----|
|--11--------------------------------|-11------------------------|
|------------------------------------|---------------------------|
|------------------------------------|---------------------------|
|
|                                 ~~~~~~~~~
|  +E       E  E   +S  S  E  E E  E    +E  E  E E  S  E.    Q
|----------12------------------------|---------------------------|
|------------------------------------|---------------------------|
|-(11)b13=====11r-(11)p9-11--8-9-[8]-|-(8)-----------------------|
|------------------------------------|-----9-------9h11----11\---|
|------------------------------------|-------11-9----------------|
|------------------------------------|---------------------------|


  E
  E    E  E   E E Q.      E  E E  E E  Q.
|----------------------|-------------------------|
|-9----9-----10---9----|--9--9---10----9---------|
|-9----9------9---9----|--9--9----9----9---------|
|-9----9------9---9----|--9--9----9----9---------|
|----------------------|-------------------------|
|----------------------|-------------------------|
|
|      ~~~~~~~~~~~~~~~~~~~~~~
| S  S E +H.              Q.      E E  E    E  E
|----------------------|-------------------------|
|----------------------|-------------------------|
|-9h11-9-(9)-----------|-[9]--------9-11--/13-11-|
|----------------------|----------9--------------|
|----------------------|-------------------------|
|----------------------|-------------------------|
|
| Gtr IV
|      ~~~~~~~~~~~~~~~~~~~~~~
| S  S E +H.              Q.      E E  E    E  E
|----------------------|-------------------------|
|-9h10-9-(9)-----------|-[9]--------9-10--/14-12-|
|----------------------|----------9--------------|
|----------------------|-------------------------|
|----------------------|-------------------------|
|----------------------|-------------------------|


  B
    Q.   E E E E E    Q.     E   E   E  E  E
|------------------|-------------------------|
|---7----7-7-7---7-|--7------7---7---7-----7-|
|---8----8-8-8---8-|--8------8---8---8-----8-|
|---9----9-9-9---9-|--9------9---9---9-----9-|
|------------------|-------------------------|
|------------------|-------------------------|
|
|  +H.         E E   +Q   E  E  +E   E  E  E
|------------------|-------------------------|
|------------------|-------------------------|
|-(11)---------9-8-|-(8)--9------------------|
|------------------|--------11-(11)----11----|
|------------------|----------------11----11-|
|------------------|-------------------------|
|
|  +H.         E E   +Q   E  E  +E   E  E  E
|------------------|-------------------------|
|-(12)---------9-7-|-(7)--9------------------|
|------------------|---------9--(9)-----9----|
|------------------|----------------11----11-|
|------------------|-------------------------|
|------------------|-------------------------|


  C#m
  Q          E  E +E  E E E   Q          E  E +E  E E E
|-0-------------0-(0)-0---0-|-0-------------0-(0)-0---0-|
|-4-------------4-(4)-4---4-|-4-------------4-(4)-4---4-|
|-6-------------6-(6)-6---6-|-6-------------6-(6)-6---6-|
|-6-------------6-(6)-6---6-|-6-------------6-(6)-6---6-|
|---------------------------|---------------------------|
|---------------------------|---------------------------|
|
|                                           ~~~~~~
| E   +E    +E  E +E  E E E   E   +E    +E  E +H
|---------------------------|---------------------------|
|---------------------------|---------------------------|
|-8b9r(8)b9r(8)-6-(6)---6---|-8b9r(8)b9r(8)-6-(6)-------|
|---------------------6---6-|---------------------------|
|---------------------------|---------------------------|
|---------------------------|---------------------------|
|
|                                           ~~~~~~
| E   +E    +E  E +E  E E E   E   +E    +E  E +H
|---------------------------|---------------------------|
|-7b9r(7)b9r(7)-5-(5)---5---|-7b9r(7)b9r(7)-5-(5)-------|
|---------------------4---4-|---------------------------|
|---------------------------|---------------------------|
|---------------------------|---------------------------|
|---------------------------|---------------------------|


  A
  Q   E E +E  E E E    Q.         E +Q      Q
|-------------------|-------------------------------||
|-5-----5-(5)-5---5-|--5----------5-(5)-----5-------||
|-6-----6-(6)-6---6-|--6----------6-(6)-----6-------||
|-7-----7-(7)-7---7-|--7----------7-(7)-----7-------||
|-------------------|-------------------------------||
|-------------------|-------------------------------||
|
| E E E E +E  E E E    E   E  E   E  E   E  E  S  S
|-------------------|-------------------------------||
|---5-5-----------5-|---------------14--------17h19-||
|-6-----6-(6)-4-6---|-----13-16-/16-----16-13-------||
|-------------------|-16----------------------------||
|-------------------|-------------------------------||
|-------------------|-------------------------------||
|
| E E E E +E  E E E    E   E  E   E  E   E  E  S  S
|---4-4-----------4-|--------14-----14--------16h17-||
|-5-----5-(5)-4-5---|-----14----/17-----17-14-------||
|-------------------|-16----------------------------||
|-------------------|-------------------------------||
|-------------------|-------------------------------||
|-------------------|-------------------------------||


 Bridge
  F#m                    G#m
    E  E E E +E  E E E     E  E E E +E  E Q
|----------0-(0)-------|----------0-(0)------|
|--------0-------0-----|--------0-------0----|
|------2-----------2---|------4-----------4--|
|---4----------------4-|---6-----------------|
|----------------------|---------------------|
|----------------------|---------------------|
|
|  +W                     +W
|----------------------|---------------------|
|-(19)-----------------|-(19)----------------|
|----------------------|---------------------|
|----------------------|---------------------|
|----------------------|---------------------|
|----------------------|---------------------|
|
|  +W                     +W
|-(17)-----------------|-(17)----------------|
|----------------------|---------------------|
|----------------------|---------------------|
|----------------------|---------------------|
|----------------------|---------------------|
|----------------------|---------------------|


  A                   B
  E E E E +E  E E E   E E E E +E  E Q
|-------0-(0)-------|-------0-(0)-0-0---|
|-----0-------0-----|-----0---------4---|
|---6-----------6---|---6-----------4---|
|-----------------7-|-4-----------------|
|-------------------|-------------------|
|-------------------|-------------------|
|
| W                   W
|-------------------|-------------------|
|-------------------|-------------------|
|-------------------|-------------------|
|-------------------|-------------------|
|-------------------|-------------------|
|-------------------|-------------------|
|
| W                   W
|-------------------|-------------------|
|-------------------|-------------------|
|-------------------|-------------------|
|-------------------|-------------------|
|-------------------|-------------------|
|-------------------|-------------------|


  F#m                 G#m                A                   B
  E E E E +E  E E E   E E E E +E  E Q    E E E E +E  E E E    W
|-------0-(0)-------|-------0-(0)------|-------0-(0)-------|-------||
|-----0-------0-----|-----0-------0----|-----0-------0-----|-^4----||
|---2-----------2---|---4-----------4--|---6-----------6---|-^4----||
|-4---------------4-|-6----------------|-----------------7-|-^4----||
|-------------------|------------------|-------------------|-------||
|-------------------|------------------|-------------------|-------||


  C#m               A                 B
  E E E E E E E E   E E E E E E E E   E E E E +E  E E E   E E E E +E  E Q
|---0-----0-------|---0-----0-------|-------0-(0)-------|-------0-(0)-------|
|-----4-----4-----|-----0-----0-----|-----4-------4-----|-----4-------4-----|
|-------6-----6---|-------6-----6---|---4-----------4---|---4-----------4---|
|-----------------|-----------------|-------------------|-------------------|
|-4-------------4-|-0-------------0-|-2---------------2-|-2-----------------|
|-----------------|-----------------|-------------------|-------------------|


  C#m               A            B
  E E E E E E E E   E E E E Q  E S S   W          E E E E E E Q
|---0-----0-------|---0-----0--------|----------|-2-2-2-2-2------||
|-----4-----4-----|-------2------2-2-|-2--------|-2-2-2-2-2------||
|-------6-----6---|-----4--------4-4-|-4--------|-4-4-4-4-4------||
|-----------------|--------------4-4-|-4--------|-4-4-4-4-4------||
|-4-------------4-|-0----------------|----------|----------------||
|-----------------|------------------|----------|----------------||


   Chorus 3
    C#m               A                 B
    E E E E E E E E   E E E E E E E E   E E E E +E  E E E    E  E E E +E  E Q
||----0-----0-------|---0-----0-------|-------0-(0)-------|---------0-(0)------|
||o-----4-----4-----|-----0-----0-----|-----4-------4-----|-------4-------4----|
||--------6-----6---|-------6-----6---|---4-----------4---|-----4-----------4--|
||------------------|-----------------|-------------------|--------------------|
||o-4-------------4-|-0-------------0-|-2---------------2-|--2-----------------|
||------------------|-----------------|-------------------|--------------------|
|
|   Gtr II
|   W                 W                 W                   +W
||--4---------------|-5---------------|-2-----------------|-(2)----------------|
||o-5---------------|-5---------------|-4-----------------|-(4)----------------|
||--6---------------|-6---------------|-4-----------------|-(4)----------------|
||--6---------------|-7---------------|-4-----------------|-(4)----------------|
||o-----------------|-----------------|-------------------|--------------------|
||------------------|-----------------|-------------------|--------------------|


  C#m               A                 B
  E E E E E E E E   E E E E E E E E   E E E E +E  E E E
|---0-----0-------|---0-----0-------|-------0-(0)-------|
|-----4-----4-----|-----0-----0-----|-----4-------4-----|
|-------6-----6---|-------6-----6---|---4-----------4---|
|-----------------|-----------------|-------------------|
|-4-------------4-|-0-------------0-|-2---------------2-|
|-----------------|-----------------|-------------------|
|
| W                 W                 W
|-4---------------|-5---------------|-2-----------------|
|-5---------------|-5---------------|-4-----------------|
|-6---------------|-6---------------|-4-----------------|
|-6---------------|-7---------------|-4-----------------|
|-----------------|-----------------|-------------------|
|-----------------|-----------------|-------------------|


 1.                     2.
   E  E E E +E  E Q       E  E E E +E  E E E
|--2------0-(0)-------||--0------0-(0)-----0--||
|-----4---------4----o||-----4---------4------||
|-------4---------4---||-------4---------4----||
|---------------------||----------------------||
|--------------------o||----------------------||
|---------------------||----------------------||
|
| +W                     +W
|-(2)-----------------||-(2)------------------||
|-(4)----------------o||-(4)------------------||
|-(4)-----------------||-(4)------------------||
|-(4)-----------------||-(4)------------------||
|--------------------o||----------------------||
|---------------------||----------------------||


 Outro Solo
  C#m                 A
  E E E E  E E E  E     E  E E E E E  E  E
|---0------0--------|------0-----0---------|
|-----4------4------|--------0-----0-------|
|-------6------6----|----------6------6----|
|-------------------|----------------------|
|-4---------------4-|---0----------------0-|
|-------------------|----------------------|
|
| Gtr III
| E E Q    Q   E  E    +H.            E  E
|-------------------|----------------------|
|-------------------|----------------------|
|-9-9-8-------------|----------------------|
|---------11---9-11-|-(11)-----------11-11-|
|-------------------|----------------------|
|-------------------|----------------------|
|
| Gtr IV
| E E Q    Q   E  E    +H.            E  E
|-------------------|----------------------|
|-9-9-7-------------|----------------------|
|----------9---8--9-|--(9)------------9--9-|
|-------------------|----------------------|
|-------------------|----------------------|
|-------------------|----------------------|


  B
    E  E E  E +E  E E E    E  E E E +E  E Q
|-----------0-(0)-------|---------0-(0)-------|
|--------4--------4-----|-------4-------4-----|
|------4------------4---|-----4-----------4---|
|-----------------------|---------------------|
|---2-----------------2-|--2------------------|
|-----------------------|---------------------|
|
|  +E  E H.               +W
|-----------------------|---------------------|
|-----------------------|---------------------|
|------8----------------|---------------------|
|-(11)---9--------------|-(9)-----------------|
|-----------------------|---------------------|
|-----------------------|---------------------|
|
|  +E  E H.               +W
|-----------------------|---------------------|
|------7----------------|---------------------|
|--(9)---8--------------|-(8)-----------------|
|-----------------------|---------------------|
|-----------------------|---------------------|
|-----------------------|---------------------|


  C#m                 A
  E E E E  E E E  E     E  E E E  E  E E E
|---0------0--------|------0------0--------|
|-----4------4------|--------0-------0-----|
|-------6------6----|----------6-------6---|
|-------------------|----------------------|
|-4---------------4-|---0----------------0-|
|-------------------|----------------------|
|
| E E Q    Q   E  E    +H         E  E E E
|-------------------|----------------------|
|-------------------|----------------------|
|-9-9-8-------------|------------------9-9-|
|---------11---9-11-|-(11)-------11--------|
|-------------------|---------------11-----|
|-------------------|----------------------|
|
| E E Q    Q   E  E    +H         E  E E E
|-------------------|----------------------|
|-9-9-7-------------|------------------9-9-|
|----------9---8--9-|--(9)--------9--------|
|-------------------|----------------9-----|
|-------------------|----------------------|
|-------------------|----------------------|


  B
   E  E E  E +E  E E E    E  E E E +E  E Q
|----------0-(0)-------|--2------0-(0)-------|
|-------4--------4-----|-----4---------4-----|
|-----4------------4---|-------4---------4---|
|----------------------|---------------------|
|--2-----------------2-|---------------------|
|----------------------|---------------------|
|
| +E  E H.               +W
|----------------------|---------------------|
|----------------------|---------------------|
|-(9)-8-8--------------|-(8)-----------------|
|----------------------|---------------------|
|----------------------|---------------------|
|----------------------|---------------------|
|
| +E  E H.               +W
|----------------------|---------------------|
|-(9)-7-7--------------|-(7)-----------------|
|----------------------|---------------------|
|----------------------|---------------------|
|----------------------|---------------------|
|----------------------|---------------------|


  C#m                           A
    E    E   E  E  E  E  E  E     E   E  E  E  E  E  E  E
|--------0---------0----------|-------0--------0----------|
|------------4--------4-------|----------0--------0-------|
|---------------6--------6----|-------------6--------6----|
|-----------------------------|---------------------------|
|---4-----------------------4-|---0---------------------0-|
|-----------------------------|---------------------------|
|
|   E    E   E  E  E  E  E  E    +E   E  E  E  E  E  E  E
|--12---12--11-----9----11-12-|-(12)-12-11-----9----11----|
|-[12]-[12]-12-12-12-12-12-12-|-(12)-12-12-12-12-12-12-12-|
|-----------------------------|---------------------------|
|-----------------------------|---------------------------|
|-----------------------------|---------------------------|
|-----------------------------|---------------------------|


  B
   E  E  E  E +E   E  E  E     E   E  E  E +E   E  Q
|-----------0-(0)----------|-------------0-(0)-----------|
|--------4---------4-------|----------4---------4--------|
|-----4---------------4----|-------4---------------4-----|
|--------------------------|-----------------------------|
|--2---------------------2-|---2-------------------------|
|--------------------------|-----------------------------|
|
|  E  E  E  E  E   E  E  E    +E   E  E  E  E   E  E  E
|-12-12-11-----9-----11-12-|-(12)-12-11-----9-----11-----|
|-12-12-12-12-12--12-12-12-|-(12)-12-12-12-12--12-12-12--|
|--------------------------|-----------------------------|
|--------------------------|-----------------------------|
|--------------------------|-----------------------------|
|--------------------------|-----------------------------|


  C#m                       A
   E  E  E  E  E  E  E  E     E   E  E  E  E  E  E  E
|-----0--------0----------|-------0--------0----------|
|--------4--------4-------|----------0--------0-------|
|-----------6--------6----|-------------6--------6----|
|-------------------------|---------------------------|
|--4--------------------4-|---0---------------------0-|
|-------------------------|---------------------------|
|
|  E  E  E  E  E  E  E  E    +E   E  E  E  E  E  E  E
|-12-12-11-----9----11-12-|-(12)-12-11-----9----11----|
|-12-12-12-12-12-12-12-12-|-(12)-12-12-12-12-12-12-12-|
|-------------------------|---------------------------|
|-------------------------|---------------------------|
|-------------------------|---------------------------|
|-------------------------|---------------------------|


  B
   E  E  E  E +E   E  E  E     E   E  E  E +E   E  Q
|-----------0-(0)----------|---2---------0-(0)-----------|
|--------4---------4-------|-------4------------4--------|
|-----4---------------4----|----------4------------4-----|
|--------------------------|-----------------------------|
|--2---------------------2-|-----------------------------|
|--------------------------|-----------------------------|
|
|  E  E  E  E  E   E  E  E    +E   E  E  E  E   E  E  E
|-12-12-11-----9-----11-12-|-(12)-12-11-----9-----11-----|
|-12-12-12-12-12--12-12-12-|-(12)-12-12-12-12--12-12-12--|
|--------------------------|-----------------------------|
|--------------------------|-----------------------------|
|--------------------------|-----------------------------|
|--------------------------|-----------------------------|


  C#m
  E    E    E    E    E    E    E    E
|------0--------------0-------------------|
|-----------4--------------4--------------|
|----------------6--------------6---------|
|-----------------------------------------|
|------------------------------------4----|
|-----------------------------------------|
|
| S  S S  S S  S S  S S  S S  S S  S S  S
|-----------------------------------------|
|-9h10p9---------9h10p9---------9h10p9----|
|--------11-9-11--------11-9-11--------11-|
|-----------------------------------------|
|-----------------------------------------|
|-----------------------------------------|


  A
  E    E    E    E    E    E    E    E
|------0--------------0---------------------|
|-----------0--------------0----------------|
|----------------6--------------6-----------|
|-------------------------------------------|
|-0----------------------------------0------|
|-------------------------------------------|
|
| S  S S  S S  S S  S S  S S  S S  S S  S
|-------------------------------------------|
|------9h10p9---------9h10p9---------9h10p==|
|-9-11--------11-9-11--------11-9-11--------|
|-------------------------------------------|
|-------------------------------------------|
|-------------------------------------------|


  B
  E    E    E    E    +E     E    E    E
|----------------0----(0)-------------------|
|-----------4----------------4--------------|
|------4--------------------------4---------|
|-------------------------------------------|
|-2------------------------------------2----|
|-------------------------------------------|
|
| S  S S  S S  S S  S  S   S S  S S  S S  S
|-------------------------------------------|
|-9---------9h10p9-----------9h10p9---------|
|---11-9-11--------11--9--11--------11-9-11-|
|-------------------------------------------|
|-------------------------------------------|
|-------------------------------------------|


  E    E    E    E    +E     E     E E
|----------------0----(0)---------------|
|-----------4----------------4----------|
|------4---------------------------4----|
|---------------------------------------|
|-2----------------------------------2--|
|---------------------------------------|
|
| S  S S  S S  S S  S  S   S S  S  E E
|------------------------------------9--|
|-9h10p9---------9h10p=9-------------9--|
|--------11-9-11----------11-9-11-11----|
|---------------------------------------|
|---------------------------------------|
|---------------------------------------|


  C#m                           A
   E    E E  E    E E  E    E   E  E    E E  E    E E  E
|-------0---------0-----------|----0---------0--------------|
|---------4---------4---------|---------0---------0---------|
|------------6---------6------|-----------6---------6-------|
|-----------------------------|-----------------------------|
|--4------------------------4-|-0----------------------0----|
|-----------------------------|-----------------------------|
|
|  E    E E  E    E E  E    E   E  E    E E  E    E E  E
|-------9---------9---------9-|---------9---------9---------|
|-12b14---9-12b14---9-12b14---|-9-12b14---9-12b14---9-12b14-|
|-----------------------------|-----------------------------|
|-----------------------------|-----------------------------|
|-----------------------------|-----------------------------|
|-----------------------------|-----------------------------|


  B
  E  E    E  E    +E   E    E  E      E  E    E  E    +E   E    Q
|------------0----(0)---------------|-2----------0----(0)--------------|
|---------4------------4------------|----4-----------------4-----------|
|----4----------------------4-------|---------4-----------------4------|
|-----------------------------------|----------------------------------|
|-2----------------------------2----|----------------------------------|
|-----------------------------------|----------------------------------|
|
| E  E    E  E     E   E    E  E      E  E    E  E     E   E    E  S S
|-9-------9--------9----------------|-9-------9--------9--------9------|
|---12b14---12b14-----12b14---12b14-|---12b14---12b14-----12b14---12p9-|
|-----------------------------------|----------------------------------|
|-----------------------------------|----------------------------------|
|-----------------------------------|----------------------------------|
|-----------------------------------|----------------------------------|


  C#m
   E      E       E       E       E  E E  E
|---------0-----------------------0-------------|
|-----------------4------------------4----------|
|-------------------------6------------6--------|
|-----------------------------------------------|
|--4--------------------------------------4-----|
|-----------------------------------------------|
|
|  E     +E      +E      +E      +E  E E  E
|-11b12r(11)b12r(11)b12r(11)b12r(11)-9---12b14==|
|--------------------------------------9--------|
|-----------------------------------------------|
|-----------------------------------------------|
|-----------------------------------------------|
|-----------------------------------------------|


  A                           B
    E  E E E E E   E    E      E  E E  E  +E  E E E     E  E E  E  +E  E Q
|------0-----0--------------|----------0--(0)-------|-----------0--(0)------|
|--------0-----0------------|-------4---------4-----|--------4---------4----|
|----------6-------6--------|-----4-------------4---|------4-------------4--|
|---------------------------|-----------------------|-----------------------|
|---0-------------------0---|--2------------------2-|---2-------------------|
|---------------------------|-----------------------|-----------------------|
|
|                              ~~~~~~~~~~       ~~~~~~~~~~~         ~~~~
|  +H.            +E    S S    Q.      E  +Q    Q       Q.      E  +H
|-(12)-----------(12)r-12p9-|-12------11-(11)---9---|-----------------------|
|---------------------------|-----------------------|-[12]-----12-(12)------|
|---------------------------|-----------------------|-----------------------|
|---------------------------|-----------------------|-----------------------|
|---------------------------|-----------------------|-----------------------|
|---------------------------|-----------------------|-----------------------|


  C#m                       A
   E  E  E  E  E  E  E  E     E   E  E  E  E  E  E  E
|-----0--------0----------|-------0--------0----------|
|--------4--------4-------|----------0--------0-------|
|-----------6--------6----|--(6)--------6--------6----|
|-------------------------|---------------------------|
|--4--------------------4-|---0---------------------0-|
|-------------------------|---------------------------|
|
|  E  E  E  E  E  E  E  E    +E   E  E  E  E  E  E  E
|--9-12-11-----9----11-12-|-(12)-12-11-----9----11----|
|-12-12-12-12-12-12-12-12-|-(12)-12-12-12-12-12-12-12-|
|-------------------------|---------------------------|
|-------------------------|---------------------------|
|-------------------------|---------------------------|
|-------------------------|---------------------------|


  B
   E  E  E  E +E   E  E  E     E   E  E  E +E   E  Q
|-----------0-(0)----------|---2---------0-(0)-----------|
|--------4---------4-------|-------4------------4--------|
|-----4---------------4----|----------4------------4-----|
|--------------------------|-----------------------------|
|--2---------------------2-|-----------------------------|
|--------------------------|-----------------------------|
|
|  E  E  E  E  E   E  E  E    +E   E  E  E  E   E  E  E
|-12-12-11-----9-----11-12-|-(12)-12-11--9--9-----11-----|
|-12-12-12-12-12--12-12-12-|-(12)-12-12-12-12--12-12-12--|
|--------------------------|-----------------------------|
|--------------------------|-----------------------------|
|--------------------------|-----------------------------|
|--------------------------|-----------------------------|


  C#m                       A
   E  E  E  E  E  E  E  E    E   E  E  E  E  E  E  E
|-----0--------0----------|------0--------0----------|
|--------4--------4-------|---------0--------0-------|
|-----------6--------6----|-(6)--------6--------6----|
|-------------------------|--------------------------|
|--4--------------------4-|--0---------------------0-|
|-------------------------|--------------------------|
|
|  E  E  E  E  E  E  E  E    E   E  E  E  E  E  E  E
|-12-12-12-12-12-12-12-12-|-12--12-12-12-12-12-12-12-|
|-12-12-12-12-12-12-12-12-|-12--12-12-12-12-12-12-12-|
|-------------------------|--------------------------|
|-------------------------|--------------------------|
|-------------------------|--------------------------|
|-------------------------|--------------------------|


  B
   E  E  E  E +E   E  E  E    E  E  E  E +E   E  Q
|-----------0-(0)----------|-----------0-(0)-----------*|
|--------4---------4-------|--------4---------4--------*|
|-----4---------------4----|-----4---------------4-----*|
|--------------------------|---------------------------*|
|--2---------------------2-|--2------------------------*|
|--------------------------|---------------------------*|
|
|  E  E  E  E  E   E  E  E    E  E  E  E  E   E  E  E
|-11-11-11-11-11--11-11-11-|-11-11-11-11-11--11-11-11--*|
|-12-12-12-12-12--12-12-12-|-12-12-12-12-12--12-12-12--*|
|--------------------------|---------------------------*|
|--------------------------|---------------------------*|
|--------------------------|---------------------------*|
|--------------------------|---------------------------*|



Duration Legend
---------------
W - whole; H - half; Q - quarter; E - 8th; S - 16th; T - 32nd; X - 64th; a - acciaccatura
+ - note tied to previous; . - note dotted; .. - note double dotted
Uncapitalized letters represent notes that are staccato (1/2 duration)
Irregular groupings are notated above the duration line
Duration letters will always appear directly above the note/fret number it represents the
duration for.  Duration letters with no fret number below them represent rests.  Multi-
bar rests are notated in the form Wxn, where n is the number of bars to rest for.  Low
melody durations appear below the staff

Tablature Legend
----------------
 h   - hammer-on
 p   - pull-off
 b   - bend
 pb  - pre-bend
 r   - bend release (if no number after the r, then release immediately)
 /\  - slide into or out of (from/to "nowhere")
 s   - legato slide
 S   - shift slide
 - natural harmonic
[n]  - artificial harmonic
n(n) - tapped harmonic
 ~   - vibrato
 tr  - trill
 T   - tap
 TP  - trem. picking
 PM  - palm muting
\n/  - tremolo bar dip; n = amount to dip
 \n  - tremolo bar down
 n/  - tremolo bar up
/n\  - tremolo bar inverted dip
 =   - hold bend; also acts as connecting device for hammers/pulls
 <> - volume swell (louder/softer)
 x   - on rhythm slash represents muted slash
 o   - on rhythm slash represents single note slash

Misc Legend
-----------
 |  - bar
||  - double bar
||o - repeat start
o|| - repeat end
*|  - double bar (ending)
 :  - bar (freetime)
 $  - Segno
 &  - Coda
Tempo markers -  = BPM(8/16=s8/s16), where s8 = swing 8ths, s16 = swing 16ths

Tap to rate this tab
# A B C D E F G H I J K L M N O P Q R S T U V W X Y Z