Song name
# A B C D E F G H I J K L M N O P Q R S T U V W X Y Z

Annihilator - Never Neverland tab

#----------------------------------PLEASE NOTE---------------------------------#
#This file is the author's own work and represents their interpretation of the #
#song. You may only use this file for private study, scholarship, or research. #
#------------------------------------------------------------------------------#

NEVER NEVERLAND
As recorded by Annihilator
(From the 1990 Album NEVER NEVERLAND)

Transcribed by Momy
	

Words and Music by Annihilator
Arranged by Annihilator

Emadd9
0 2 4 0 0 0
	
Gm
3 1 x 3 3 3
	
Amadd2
x 0 2 5 0 x
	
Amadd2+5
x 0 3 5 0 x

Bsus2
x 2 4 4 2 x
	
Fsus4/D
x x 0 3 1 1
	
Dm9
x x 0 5 6 0
	
Dm9+5
x 5 8 5 6 0

C5
x x x 5 8 8
	
C#m7
x 4 6 4 5 4

Gtr I (E A D G B E) - 'Acoustic'
Gtr II (E A D G B E) - 'Lead 1'
Gtr III (E A D G B E) - 'Lead 2'
Gtr IV (E A D G B E) - 'Rhythm'

 Intro
  Q=135
  Emadd9                              Gm
 4/4
  Gtr I
                                                 ~~~
  E  E   E   Q.   +Q     +W           E  E   E   Q.   +Q     +W
|----------------------|------------|----------------------|--------|
|----------------------|------------|----------------------|--------|
|------------0----(0)--|-(0)--------|--------2---3----(3)--|-(3)----|
|--------4--(4)---(4)--|-(4)--------|----0--(0)-(0)---(0)--|-(0)----|
|----2--(2)-(2)---(2)--|-(2)--------|----------------------|--------|
|-0-(0)-(0)-(0)---(0)--|-(0)--------|-3-(3)-(3)-(3)---(3)--|-(3)----|


  Amadd2
  E  E   E   Q.   +Q     +W
|----------------------|------------|
|------------0----(0)--|-(0)--------|
|--------5--(5)---(5)--|-(5)--------|
|----2--(2)-(2)---(2)--|-(2)--------|
|-0-(0)-(0)-(0)---(0)--|-(0)--------|
|----------------------|------------|
|
| Gtr II
| W                       W
|----------------------|------------|
|----------------------|------------|
|----------------------|------------|
|----------------------|------------|
|----------------------|------------|
|----------------------|------------|
|
| Gtr III
| W                       W
|----------------------|------------|
|----------------------|------------|
|----------------------|------------|
|----------------------|------------|
|----------------------|------------|
|----------------------|------------|


  Amadd2+5               N.C.
  E   E   E   Q.   +Q        W
|------------------------||------------------|
|-------------0----(0)---||------------------|
|---------5--(5)---(5)---||------------------|
|-----3--(3)-(3)---(3)---||------------------|
|-0--(0)-(0)-(0)---(0)---||------------------|
|------------------------||------------------|
|
|                      PM---|          PM
| H.                E  E     E E E E E E Q
|------------------------||------------------|
|------------------------||------------------|
|------------------------||------------------|
|------------------------||----7-------------|
|------------------------||--------9-----7---|
|----------------------8-||-10---------5-----|
|
|                      PM---|          PM
| H.                E  E     E E E E E E Q
|------------------------||------------------|
|------------------------||------------------|
|------------------------||------------------|
|------------------------||------------------|
|----------------------7-||-10-7---5---5-3---|
|------------------------||------------------|


 Guitar Solo
  E5
  Gtr II
                    \1/     \1/
  ~                         ~~~~
  W                 H      +H
|----------------|-----------------|
|----------------|-----------------|
|----------------|-----------------|
|-5--------------|--5------(5)-----|
|----------------|-----------------|
|----------------|-----------------|
|
| Gtr III
| PM|   PM|
| E E E E E Q.     +W
|----------------|-----------------|
|----------------|-----------------|
|----------------|-----------------|
|-----2-----2----|-(2)-------------|
|-----2-----2----|-(2)-------------|
|-0-0---0-0-0----|-(0)-------------|


  G5
   Q.      E   E   E   Q     +H     +E   E   E   E
|--------------------------|------------------------|
|--------------------------|------------------------|
|-[7]-----[7]-[7]-[7]-[7]--|-(7)----(7)-------------|
|--------------------------|--------------------[5]-|
|-[5]-----[5]-[5]-[5]-[5]--|-(5)----(5)-----[5]-----|
|--------------------------|------------[5]---------|
|
|  PM-|    PM-|
|  E  E E  E   E   Q.        +W
|--------------------------|------------------------|
|--------------------------|------------------------|
|--------------------------|------------------------|
|-------5----------5-------|-(5)--------------------|
|-------5----------5-------|-(5)--------------------|
|--3--3----3---3---3-------|-(3)--------------------|


  B5
   Q.       E    E    Q.      +H     +E   E   Q
|---------------------------|---------------------|
|---------------------------|---------------------|
|-[7]-----([7])-[7]-([7])---|-(7)----(7)-----[5]--|
|-[7]-----([7])-[7]-([7])---|-(7)----(7)-[5]------|
|---------------------------|---------------------|
|---------------------------|---------------------|
|
|  PM-|     PM--|
|  E  E E   E    E    Q.      +W
|---------------------------|---------------------|
|---------------------------|---------------------|
|---------------------------|---------------------|
|-------9-------------9-----|-(9)-----------------|
|-------9-------------9-----|-(9)-----------------|
|--7--7-----7----7----7-----|-(7)-----------------|


  A5
   ~~~
   W                  E.  E.  E.   Q.    +S
|------------------|--------------------------|
|------------------|--------------------------|
|-[5]--------------|-[5]-[5]-[5]-([5])---(5)--|
|------------------|--------------------------|
|------------------|--------------------------|
|------------------|--------------------------|
|
|  PM-|   PM|
|  E  E E E E Q.     +W
|------------------|--------------------------|
|------------------|--------------------------|
|------------------|--------------------------|
|-------7-----7----|-(7)----------------------|
|-------7-----7----|-(7)----------------------|
|--5--5---5-5-5----|-(5)----------------------|


  Emadd9
                              \1.5/  \1/  \1.5/  \1/  \1.5/  \2/
                              |--------------6---------------|
   E  E  S  S  S  S  Q        S      S    S      S    S      S
|----------------------------------------------------------------|
|-12-15-12-15-12-15-15tr12---15-----12---15-----12---15-----12---|
|----------------------------------------------------------------|
|----------------------------------------------------------------|
|----------------------------------------------------------------|
|----------------------------------------------------------------|
|
|  PM-------------------------------------------------------------
|  E  E  E     E     E     E  E                  E
|----------------------------------------------------------------|
|----------------------------------------------------------------|
|--------------0--------------0----------------------------------|
|--------4-----------4---------------------------4---------------|
|-----2--------------------2-------------------------------------|
|--0-------------------------------------------------------------|


                                                                      Gm
                      \1.5/       \1.5/          \2/     \1             \2
                      |-----3-----|      |---3---|    |---3----|
   H            T  T  S      S    S      S  S    S    S  S     S  S     W
|-------------------------------------------------------------------|---------------------|
|-15tr12-------15-12-15-----12---15-----12-15---12---15-12----15-12-|---------------------|
|-------------------------------------------------------------------|-<19>----------------|
|-------------------------------------------------------------------|-<19>----------------|
|-------------------------------------------------------------------|---------------------|
|-------------------------------------------------------------------|---------------------|
|
|--------------------------------------------------------------------------------------|
|  E     E E E  E              E              E             E           E  E E E E E E E
|-------------------------------------------------------------------|---------------------|
|-------------------------------------------------------------------|---------------------|
|------------0--------------------------------0---------------------|--------2-3-2---3-2--|
|----------4----4-------------------------------------------4-------|------0-------0------|
|--------2---------------------2------------------------------------|---------------------|
|--0----------------------------------------------------------------|---3-----------------|


                              Bsus2
             \1/   \1/
                               ~~
                                       |--3---|      |-3--|
   Q.       +E    +H           H       E  E   E E    S  S S
|---------------------------|----------7-------------7------|
|-18-------(18)--(18)-------|-10---------10---7--------10-7-|
|-19-------(19)--(19)-------|-------------------9b11--------|
|---------------------------|-------------------------------|
|---------------------------|-------------------------------|
|---------------------------|-------------------------------|
|
|  PM-|                PM      PM|          PM
|  E  E Q.             E Q     E E Q.       E   E    E
|---------------------------|-------------------------------|
|---------------------------|-------------------------------|
|-------2----------------3--|------6------------7----6------|
|-----0----------------0----|----4----------4---------------|
|---------------------------|--2----------------------------|
|--3------------------------|-------------------------------|


                                Amadd2
                       ~~                 PM--|                    PM-------------|
                                                             |-3-|
   E     Q        S S  H         E E E  E E E  Q     E  E E  S S S S S S S  S S S S
|-----------------------------|-------------------|------------------------------------|
|-10b12-10b12----10-8-10------|-10-8--------------|------------------------------------|
|-----------------------------|------9--7---------|--7--9------------------------------|
|-----------------------------|-----------9-8--7--|-(7)-9-7--4h5p4---------------------|
|-----------------------------|-------------------|-------7--------5-3-2-0-------------|
|-----------------------------|-------------------|-------------------------5-3-2-0----|
|
|  PM---|                PM      PM|        PM       PM-|
|  E     E    Q.         E Q     E E Q.     E  Q     E  E Q.           E    Q
|-----------------------------|-------------------|------------------------------------|
|-----------------------------|-------------------|------------------------------------|
|-------------6------------7--|-------------------|------------------------------------|
|--------4---------------4----|------9--------10--|-------9----------------10----------|
|--2--------------------------|----7--------7-----|-----7--------------7---------------|
|-----------------------------|--5----------------|--5---------------------------------|


  N.C.                                              A5F#5
  \5
  W                           +W
|---------------------------|---------------------------|
|---------------------------|---------------------------|
|---------------------------|---------------------------|
|---------------------------|---------------------------|
|---------------------------|---------------------------|
|-0-------------------------|-(0)-----------------------|
|
|    PM----|   PM----|            PM----|   PM----|
| E  S S S S E S S S S  Q      E  S S S S E S S S S E E
|---------------------------|---------------------------|
|---------------------------|---------------------------|
|---------------------------|---------------------------|
|---------------------------|-----------------------7-4-|
|----------------------<5>--|-----------------------7-4-|
|-0--0-0-0-0-0-0-0-0-0------|--0--0-0-0-0-0-0-0-0-0-5-2-|


  N.C.                                                         A5F#5
                                        \2
   Q       Q         Q         Q        W
|-------------------------------------|----------------------------|
|-------------------------------------|----------------------------|
|-[5]-----[5]-------[5]-------[5]-----|-4--------------------------|
|-------------------------------------|----------------------------|
|-------------------------------------|----------------------------|
|-------------------------------------|----------------------------|
|
|     PM--------|       PM--------|     PM-----|   PM--------|
|  E  S S  S  S S E     S S S  S  S E   S  S S S E S S S S S S E E
|-------------------------------------|----------------------------|
|-------------------------------------|----------------------------|
|-------------------------------------|----------------------------|
|-------------------------------------|------------------------7-4-|
|-------------------------------------|------------------------7-4-|
|--0--0-0--0--0-0-0-----0-0-0--0--0-0-|-0--0-0-0-0-0-0-0-0-0-0-5-2-|


   Pre-Verse
    E5                      G5     E5                                  A5   F#5
    Gtr II
                          ~                                          ~~~~~~~
    S S S S S S S S S S S S +Q      S  S  S  S  S  S  S  S  S  S  S  S  +Q
||-------------------------------|--------------------------------------------|
||o------------------------------|-------12----12-10--------------------------|
||--7h9-9-9-7h9-9-9-7h9-9-9-(9)--|--9--9-----9--------9-12-11----11--9--(9)---|
||-------------------------------|----------------------------12--------------|
||o------------------------------|--------------------------------------------|
||-------------------------------|--------------------------------------------|
|
|   Gtr III
|                         ~                                          ~~~~~~~
|   S S S S S S S S S S S S +Q      S  S  S  S  S  S  S  S  S  S  S  S  +Q
||-------------------------------|--------------------------------------------|
||o-7h8-8-8-7h8-8-8-7h8-8-8-(8)--|-------15----15-13--------------------------|
||-------------------------------|-12-12----12-------14-16-14----14-12-(12)---|
||-------------------------------|----------------------------16--------------|
||o------------------------------|--------------------------------------------|
||-------------------------------|--------------------------------------------|
|
|   Gtr IV
|       PM----------------|               PM------|         PM------|
|   E   S S S S S S S S S S  Q      E     S  S  S  S  E     S  S  S  S   E  E
||-------------------------------|--------------------------------------------|
||o------------------------------|--------------------------------------------|
||-------------------------------|--------------------------------------------|
||---------------------------5---|---------------------------------------7--4-|
||o-2------------------------5---|--2-----------------2------------------7--4-|
||--0---0-0-0-0-0-0-0-0-0-0--3---|--0-----0--0--0--0--0-----0--0--0--0---5--2-|


  E5                      G5
                           ~~~
  S S S S S S S S S S S S +Q
|------------------------------|
|------------------------------|
|-7h9-9-9-7h9-9-9-7h9-9-9-(9)--|
|------------------------------|
|------------------------------|
|------------------------------|
|
|                       ~~~~~~
| S S S S S S S S S S S S +Q
|------------------------------|
|-7h8-8-8-7h8-8-8-7h8-8-8-(8)--|
|------------------------------|
|------------------------------|
|------------------------------|
|------------------------------|
|
|     PM----------------|
| E   S S S S S S S S S S  Q
|------------------------------|
|------------------------------|
|------------------------------|
|--------------------------5---|
|-2------------------------5---|
|-0---0-0-0-0-0-0-0-0-0-0--3---|


  E5                                  A5F#5    C5
                           ~~~~~~~~~~~~~~~~
   S  S  S  S  S  S  S  S  E.      E.    E      +W
|-------------------------15----------------||---------|
|-------------------12-15------------------o||---------|
|-11-12-12-11-14-12-------------------------||---------|
|---------------------------------12----10--||-(10)----|
|------------------------------------------o||---------|
|-------------------------------------------||---------|
|
|                          ~~~~~~~~~~~~~~~~
|  S  S  S  S  S  S  S  S  E.      E.    E      +W
|-------------------------------------------||---------|
|------------------------------------------o||---------|
|-14-16-16-14-17-------16-------------------||---------|
|----------------14-17----12------14----12--||-(12)----|
|------------------------------------------o||---------|
|-------------------------------------------||---------|
|
|        PM------|         PM-----|
|  E     S  S  S  S  E     S  S S  S  E  E       W
|-------------------------------------------||---------|
|------------------------------------------o||---------|
|-------------------------------------------||---5-----|
|-------------------------------------7--4--||---5-----|
|--2-----------------2----------------7--4-o||---3-----|
|--0-----0--0--0--0--0-----0--0-0--0--5--2--||---------|


               Fsus4/D                            Gm
  Gtr II
                                                    ~~
   W           E E T T S E E  E E S S   +E  Q   Q   Q.
|------------|------------------------|--------------------|
|------------|---6-5h6p5--------5-6S8-|-(8)-6---5----------|
|------------|-----------7-5--7-------|--------------------|
|------------|------------------------|-------------7------|
|------------|------------------------|--------------------|
|------------|------------------------|--------------------|
|
| Gtr I
|  W           E E E     E E  E E E      E  E E E E E  E E
|------------|---0-1------------1-----|-----1-0-1--------3-|
|------------|-----------1----1-------|--1-------------3---|
|------------|-------------3------2---|-(2)---------3------|
|------------|-0----------------------|-----------5--------|
|------------|------------------------|--------------------|
|------------|------------------------|--------------------|
|              H           Q.     E     +H        H
|
| Gtr IV
|  >
| +W           W                         W
|------------|------------------------|--------------------|
|------------|------------------------|--------------------|
|-(5)--------|------------------------|--------------------|
|-(5)--------|------------------------|--------------------|
|-(3)--------|------------------------|--------------------|
|------------|------------------------|--------------------|


  Fsus4/D                             Gm
                               ~~
  E E T T S E E  E E S S   +E  H.           +E
|------------------------|----------------------|
|---6-5h6p5--------5-6S8-|-(8)-6------------(6)-|
|-----------7-5--7-------|----------------------|
|------------------------|----------------------|
|------------------------|----------------------|
|------------------------|----------------------|
|
| E E E     E E  E E E      E  E  E E E E E  E
|---0-1------------1-----|-----1--0-1--------3--|
|-----------1----1-------|--1-------------3-----|
|-------------3------2---|-(2)----------3-------|
|-0----------------------|------------5---------|
|------------------------|----------------------|
|------------------------|----------------------|
| H           Q.     E     +H         H
|
| W                         W
|------------------------|----------------------|
|------------------------|----------------------|
|------------------------|----------------------|
|------------------------|----------------------|
|------------------------|----------------------|
|------------------------|----------------------|


  Fsus4/D                                    Gm
  Gtr II
                                               ~~
  E  E T  T S  E E   E E  S  S    +E   Q   Q   Q.
|------------------------------|----------------------|
|----6-5h=6p5----------5--6S=8-|--(8)--6---5----------|
|--------------7-5---7---------|----------------------|
|------------------------------|---------------7------|
|------------------------------|----------------------|
|------------------------------|----------------------|
|
| Gtr III
|                                              ~~
| E  E T  T S  E E   E E  S  S    +E   Q   Q   Q.
|------------------------------|----------------------|
|---10-8-10-8----------8-10-11-|-(11)-10---8----------|
|-------------10-9--10---------|---------------9------|
|------------------------------|----------------------|
|------------------------------|----------------------|
|------------------------------|----------------------|
|
| Gtr I
| E  E E       E E   E E  E        E   E E E E E  E E
|----0-1---------------1-------|-------1-0-1--------3-|
|--------------1-----1---------|---1--------------3---|
|----------------3--------2----|--(2)----------3------|
|-0----------------------------|-------------5--------|
|------------------------------|----------------------|
|------------------------------|----------------------|
  H              Q.       E       +H         H


  Fsus4/D                                     Gm
                                       ~~~
  E  E T  T S  E E   E E  S  S     E   H.            +E
|------------------------------|-------------------------|
|----6-5h=6p5----------5--6S=8-|---8---6-------------(6)-|
|--------------7-5---7---------|-------------------------|
|------------------------------|-------------------------|
|------------------------------|-------------------------|
|------------------------------|-------------------------|
|
|                                      ~~~
| E  E T  T S  E E   E E  S  S    +E   H.            +E
|------------------------------|-------------------------|
|---10-8-10-8----------8-10-11-|-(11)-10------------(10)-|
|-------------10-9--10---------|-------------------------|
|------------------------------|-------------------------|
|------------------------------|-------------------------|
|------------------------------|-------------------------|
|
| E  E E       E E   E E  E        E   E  E E E E E   E
|----0-1---------------1-------|-------1--0-1---------3--|
|--------------1-----1---------|---1--------------3------|
|----------------3--------2----|---2------------3--------|
|-0----------------------------|--------------5----------|
|------------------------------|-------------------------|
|------------------------------|-------------------------|
  H              Q.       E        H          H


   Verse1
    Dm9               Dm9+5               Gm                D5
    Gtr I
    E E E E E E E E   E E E E E E E E  4x E E E E E E E E   E E E Q  E Q
||----0-----0-------|---0-----0--------||---3-----3-------|---5--------5---|
||o-----6-----6---6-|-----6-----6---6-o||-----3-----3---3-|-----3----3-----|
||--------5-----5---|-------5-----5----||-3-----3-----3---|-2-----2--------|
||--0---------------|-8----------------||-----------------|----------------|
||o-----------------|-----------------o||-----------------|----------------|
||------------------|------------------||-----------------|----------------|


  Dm9               Dm9+5             Gm                C5
  E E E E E E E E   E E E E E E E E   E E E E E E E E   E E E Q  E Q
|---0-----0-------|---0-----0-------|---6-----6-------|---8--------8--|
|-----6-----6---6-|-----6-----6---6-|-----8-----8---8-|-----8----5----|
|-------5-----5---|-------5-----5---|-7-----7-----7---|-5-----5-------|
|-0---------------|-8---------------|-----------------|---------------|
|-----------------|-----------------|-----------------|---------------|
|-----------------|-----------------|-----------------|---------------|


  Dm9               Dm9+5             Dm9               Dm9+5
  E E E E E E E E   E E E E E E E E   E E E E E E E E   E E E E E E E E
|---0-----0-------|---0-----0-------|---0-----0-------|---0-----0-------|
|-----6-----6---6-|-----6-----6---6-|-----6-----6---6-|-----6-----6---6-|
|-------5-----5---|-------5-----5---|-------5-----5---|-------5-----5---|
|-0---------------|-8---------------|-0---------------|-8---------------|
|-----------------|-----------------|-----------------|-----------------|
|-----------------|-----------------|-----------------|-----------------|


   Pre-Chorus
       C#m7
     E   E      E E E E E E               E  E  E     E    E     E    Q
||------------------------------------|-----------------------------------------|
||o------0------------0---------------|------0-------------0----------0---------|
||--------------6-------6-------------|---------6----------------6--------------|
||----------------6-------6-----------|---------------6-------------------------|
||o--4--------------4-----------------|---4-------------------------------------|
||------------------------------------|-----------------------------------------|
|
|   Gtr II
|        ~~~~                 ~~~~~~~~~~~~~~~
|                                                     |---3---|  |---3---|  |3|
|    E  +X   H.              +S   +T.    +Q     E     E  E    E  E  E    E  E S
||------------------------------------|-----------------------------------------|
||o-12-(12)-12--------------(12)-(12)-|-(12)---------12h14-----------------12-0-|
||------------------------------------|--------14b16---------14-11-13---14------|
||------------------------------------|-----------------------------------------|
||o-----------------------------------|-----------------------------------------|
||------------------------------------|-----------------------------------------|


  Bsus2
   E     E    E       E E E        E       E           E  E E E  E    E Q
|--------------------------------------------------|-----------------------------||
|--------2----------------2------------------------|------2------5------2-------o||
|-------------4--------------------4---------------|--------4---------4----------||
|---------------------4--------------------4-------|----------4------------------||
|--2--------------------2--------------------------|---2------------------------o||
|--------------------------------------------------|-----------------------------||
|
|                ~~~~~                                           ~~~~~~
| +S   E    E    Q.          E        +S   S  S       +H         Q.        E
|--------------------------------------------------|-----------------------------||
|-(0)-14h==15---14b15-------14pb15r==(14)-12-14b15r|=(14)-------14b15r====12----o||
|--------------------------------------------------|-----------------------------||
|--------------------------------------------------|-----------------------------||
|--------------------------------------------------|----------------------------o||
|--------------------------------------------------|-----------------------------||


    C#m7
     +E   E   E E E E E E   E E E E E E E E
||------------------------|-----------------|
||o--(2)------0-------0---|-----0-----0---0-|
||--------------6-------6-|-------6-----6---|
||----------------6-------|-6-------6-------|
||o-------4---------4-----|---4-------------|
||------------------------|-----------------|
|
|         >
|    +E   H..               W
||------------------------|-----------------|
||o-(12)s14---------------|-----------------|
||------------------------|-----------------|
||------------------------|-----------------|
||o-----------------------|-----------------|
||------------------------|-----------------|


  Bsus2
  +E  E E E E E E E   E E E E E E E E     +E  H..
|-------------------|------------------||------------|
|-(0)---2-------2---|-----2-----5---2-o||-(x)--------|
|---------4-------4-|-------4-----4----||------------|
|-----------4-------|-4-------4--------||------------|
|-----2-------2-----|---2-------------o||------------|
|-------------------|------------------||------------|


   Chorus
    Q=175
    BbA5N.C.               G5F5N.C.
    Gtrs II, III
    E E S S S S Q  S S E   E E S S S S Q  S S E
||-----------------------|----------------------|
||o----------------------|----------------------|
||-----------------------|----------------------|
||-----------------------|----------------------|
||o-8S7------------------|-5S3------------------|
||--6S5-0-0-0------0-0-0-|-3S1-0-0-0------0-0-0-|


  BbA5N.C.               Eb5    Bb5
  E E S S S S Q  S S E   E Q.   E Q.
|----------------------|----------------|
|----------------------|----------------|
|----------------------|----------------|
|----------------------|-8-8------------|
|-8S7------------------|-6-6----8-8-----|
|-6S5-0-0-0------0-0-0-|--------6-6-----|


    A5N.C.               G5F5N.C.
  E E S S S S Q  S S E   E E S S S S Q  S S E
|----------------------|----------------------|
|----------------------|----------------------|
|----------------------|----------------------|
|----------------------|----------------------|
|-8S7------------------|-5S3------------------|
|-6S5-0-0-0------0-0-0-|-3S1-0-0-0------0-0-0-|


  BbA5N.C.               Eb5    F5
  E E S S S S Q  S S E   E Q.    E  Q.
|----------------------|------------------||
|----------------------|-----------------o||
|----------------------|------------------||
|----------------------|-8-8----10-10-----||
|-8S7------------------|-6-6-----8--8----o||
|-6S5-0-0-0------0-0-0-|------------------||


 Bridge
  N.C.(E5)
  PM|   PM|   PM|     PM|   PM|       PM|   PM|   PM|
  E E E E E E E E   E E E E E E E E   E E E E E E E E   E E E E E E E E
|-----------------|-----------------|-----------------|-----------------|
|-----------------|-----------------|-----------------|-----------------|
|-----------------|-----------------|-----------------|-----------------|
|-----------------|-----------------|-----------------|-----------------|
|-----------------|-------------1-0-|-----------------|---5-4-0-3-2---1-|
|-0-0-3-0-0-3-0-0-|-3-0-0-3-0-0-----|-0-0-3-0-0-3-0-0-|-3-----------3---|


               PM|   PM|   PM|     PM|   PM|       PM|   PM|   PM|
  W            E E E E E E E E   E E E E E E E E   E E E E E E E E
|----------||------------------|-----------------|-----------------|
|----------||o-----------------|-----------------|-----------------|
|----------||------------------|-----------------|-----------------|
|----------||------------------|-----------------|-----------------|
|----------||o-----------------|-------------1-0-|-----------------|
|----------||--0-0-3-0-0-3-0-0-|-3-0-0-3-0-0-----|-0-0-3-0-0-3-0-0-|


                          PM|   PM|   PM|
  E E E E E E E E         E E E E E E E E
|------------------||-||------------------|
|-----------------o||-||o-----------------|
|------------------||-||------------------|
|------------------||-||------------------|
|---5-4-0-3-2---1-o||-||o-----------------|
|-3-----------3----||-||--0-0-3-0-0-3-0-0-|


    PM|   PM|
  E E E E E E E E  4x E E E E E E E E
|------------------||-----------------|
|-----------------o||-----------------|
|------------------||-----------------|
|------------------||-----------------|
|-------------1-0-o||---5-4-0-3-2---1-|
|-3-0-0-3-0-0------||-3-----------3---|


 Pre-Verse2
               Q=135
               N.C.                    G5
  Gtr II
                                     ~
  W            S S S S S S S S S S S S +Q
|----------||-------------------------------|
|----------||o------------------------------|
|----------||--7h9-9-9-7h9-9-9-7h9-9-9-(9)--|
|----------||-------------------------------|
|----------||o------------------------------|
|----------||-------------------------------|
|
| Gtr III
|                                    ~
| W            S S S S S S S S S S S S +Q
|----------||-------------------------------|
|----------||o-7h8-8-8-7h8-8-8-7h8-8-8-(8)--|
|----------||-------------------------------|
|----------||-------------------------------|
|----------||o------------------------------|
|----------||-------------------------------|
|
| Gtr IV
|                  PM----------------|
| W            E   S S S S S S S S S S  Q
|----------||-------------------------------|
|----------||o------------------------------|
|----------||-------------------------------|
|----------||---------------------------5---|
|----------||o--------------------------5---|
|----------||--0---0-0-0-0-0-0-0-0-0-0--3---|


  E5                                  A5   F#5
                                    ~~~~~~~
   S  S  S  S  S  S  S  S  S  S  S  S  +Q
|---------------------------------------------|
|-------12----12-10---------------------------|
|--9--9-----9--------9-12-11----11--9--(9)----|
|----------------------------12---------------|
|---------------------------------------------|
|---------------------------------------------|
|
|                                   ~~~~~~~
|  S  S  S  S  S  S  S  S  S  S  S  S  +Q
|---------------------------------------------|
|-------15----15-13---------------------------|
|-12-12----12-------14-16-14----14-12-(12)----|
|----------------------------16---------------|
|---------------------------------------------|
|---------------------------------------------|
|
|        PM------|         PM------|
|  E     S  S  S  S  E     S  S  S  S   E  E
|---------------------------------------------|
|---------------------------------------------|
|---------------------------------------------|
|---------------------------------------7--4--|
|---------------------------------------7--4--|
|--0-----0--0--0--0--0-----0--0--0--0---5--2--|


  E5                      G5     E5                                  A5F#5
                           ~~~                            ~~~~~~~~~~~~~~~~
  S S S S S S S S S S S S +Q      S  S  S  S  S  S  S  S  E.      E.    E
|------------------------------|-------------------------15----------------||
|------------------------------|-------------------12-15------------------o||
|-7h9-9-9-7h9-9-9-7h9-9-9-(9)--|-11-12-12-11-14-12-------------------------||
|------------------------------|---------------------------------12----10--||
|------------------------------|------------------------------------------o||
|------------------------------|-------------------------------------------||
|
|                       ~~~~~~                            ~~~~~~~~~~~~~~~~
| S S S S S S S S S S S S +Q      S  S  S  S  S  S  S  S  E.      E.    E
|------------------------------|-------------------------------------------||
|-7h8-8-8-7h8-8-8-7h8-8-8-(8)--|------------------------------------------o||
|------------------------------|-14-16-16-14-17-------16-------------------||
|------------------------------|----------------14-17----12------14----12--||
|------------------------------|------------------------------------------o||
|------------------------------|-------------------------------------------||
|
|     PM----------------|               PM------|         PM-----|
| E   S S S S S S S S S S  Q      E     S  S  S  S  E     S  S S  S  E  E
|------------------------------|-------------------------------------------||
|------------------------------|------------------------------------------o||
|------------------------------|-------------------------------------------||
|--------------------------5---|-------------------------------------7--4--||
|--------------------------5---|-------------------------------------7--4-o||
|-0---0-0-0-0-0-0-0-0-0-0--3---|--0-----0--0--0--0--0-----0--0-0--0--5--2--||


 Guitar Solo
  Emadd9                                             Gm
 1/8    4/4
  Gtr II
    ~~~~                 ~~                 ~~                             ~~
   +E    S S E E E E E S E.     S S E Q   E Q.        S  S  E  E  E  E  E  Q
|------|----------------------|--------------------|---------------------------|
|------|-7h8p7----------------|-7h8p7-7h==8-8------|-10h11p10------------------|
|------|-------7---7-7-7-9----|-------7h==9-9------|----------10----10-10-12---|
|-(10)-|---------9------------|--------------------|-------------12------------|
|------|----------------------|--------------------|---------------------------|
|------|----------------------|--------------------|---------------------------|
|
| Gtr IV
|   E    E   E E E E E E    E   E   E E E E E  E E    E     E  E  E  E  E  E E
|------|----------------------|--------------------|---------------------------|
|------|----------------------|--------------------|---------------------------|
|------|-------0-----0--------|-------0-----0------|--------2--3--2-----3--2---|
|------|-----4---4-----4------|-----4---4------4---|--0--------------0---------|
|------|-2---------2----------|-2---------2--------|---------------------------|
|---0--|--------------------0-|------------------3-|-------------------------3-|


                     Bsus2
                                          ~~
   +Q      H.            S S  E E  E E E  Q     E  E E  E E Q.
|----------------------|----------------------|---------------------|
|----------------------|----------------------|---------------------|
|-(12)---[12]b14-------|-6h7p=6---------------|-7--6----6S7-7-------|
|----------------------|--------7----7-7h=9---|------7--7S9-9-------|
|----------------------|-----------9----------|---------------------|
|----------------------|----------------------|---------------------|
|
|   H..              E   E    E E  E E E  E E   E  E E  E E E   E E
|----------------------|----------------------|---------------------|
|----------------------|----------------------|---------------------|
|----------------------|--------7------7------|------7------7-------|
|----------------------|-----11---11-----11---|---11---11------11---|
|----------------------|-9-----------9--------|-9---------9---------|
|---3----------------7-|--------------------7-|-------------------5-|


  Amadd2                               Fsus4/D
                        7/8           4/4
                                    Gtr I
                  ~~
  S S E E E E E S E.     +H..          E E E E E  E E E
|----------------------|------------||---0-1--------1----|
|----------------------|------------||-------1----1------|
|-4h5p4----------------|------------||---------3------2--|
|-------5---5-5-5S7----|-(7)--------||-0-----------------|
|---------7------------|------------||-------------------|
|----------------------|------------||-------------------|
|                                      H       Q.     E
|
| E   E E E E E E    E   +H..          W
|----------------------|------------||-------------------|
|----------------------|------------||-------------------|
|-------5-----5--------|------------||-------------------|
|-----9---9-----9------|------------||-------------------|
|-7---------7----------|------------||-------------------|
|--------------------5-|-(5)--------||-------------------|


            Gm        Fsus4/D                      Gm
   E  E E E E E E E   E E E E E  E E E    E  E E E E E E E
|-----1-0-1-------3-|---0-1--------1---|-----1-0-1-------3-|
|--1------------3---|-------1----1-----|--1------------3---|
|-(2)---------3-----|---------3------2-|-(2)---------3-----|
|-----------5-------|-0----------------|-----------5-------|
|-------------------|------------------|-------------------|
|-------------------|------------------|-------------------|
  +H        H         H       Q.     E   +H        H


   Verse2
    Dm9               Dm9+5               Gm                D5
    Gtr I
    E E E E E E E E   E E E E E E E E  4x E E E E E E E E   E E E Q  E Q
||----0-----0-------|---0-----0--------||---3-----3-------|---5--------5---|
||o-----6-----6---6-|-----6-----6---6-o||-----3-----3---3-|-----3----3-----|
||--------5-----5---|-------5-----5----||-3-----3-----3---|-2-----2--------|
||--0---------------|-8----------------||-----------------|----------------|
||o-----------------|-----------------o||-----------------|----------------|
||------------------|------------------||-----------------|----------------|


  Dm9               Dm9+5            Gm                C5
  E E E E E E E E   E E E E E E Q    E E E E E E E E   E E E Q  E Q
|---0-----0-------|---0-----0------|---6-----6-------|---8--------8--|
|-----6-----6---6-|-----6-----6----|-----8-----8---8-|-----8----5----|
|-----------------|----------------|-7-----7-----7---|-5-----5-------|
|-0-----7-----7---|-------7-----7--|-----------------|---------------|
|-----------------|----------------|-----------------|---------------|
|-----------------|-6--------------|-----------------|---------------|


                                             Outro
    Dm9               Dm9+5                   C#m7
    E E E E E E E E   E E E E E E E E  4x     E E E E E E E E   E E E E E E Q
||----0-----0-------|---0-----0--------||-||------------------|----------------|
||o-----6-----6---6-|-----6-----6---6-o||-||o---0-------0-----|---0-----0---0--|
||--------5-----5---|-------5-----5----||-||------6-------6---|-----6-----6----|
||--0---------------|-8----------------||-||--------6-------6-|-------6--------|
||o-----------------|-----------------o||-||o-4-------4-------|-4--------------|
||------------------|------------------||-||------------------|----------------|


  Bsus2                                        C#m7
  E E E E E E E E   E E E E E E Q          +E  E E E E E E E   E E E E E E E E
|-----------------|-----------------||-||--------------------|-----------------|
|---2-------2-----|---2-----5---2--o||-||o-(2)---0-------0---|-----0-----0---0-|
|-----4-------4---|-----4-----4-----||-||----------6-------6-|-------6-----6---|
|-------4-------4-|-------4---------||-||------------6-------|-6-------6-------|
|-2-------2-------|-2--------------o||-||o-----4-------4-----|---4-------------|
|-----------------|-----------------||-||--------------------|-----------------|


      Bsus2
  +E  E E E E E E E   E E E E E E E E  8x
|-------------------|------------------||
|-(0)---2-------2---|-----2-----5---2-o||
|---------4-------4-|-------4-----4----||
|-----------4-------|-4-------4--------||
|-----2-------2-----|---2-------------o||
|-------------------|------------------||



Duration Legend
---------------
W - whole; H - half; Q - quarter; E - 8th; S - 16th; T - 32nd; X - 64th; a - acciaccatura
+ - note tied to previous; . - note dotted; .. - note double dotted
Uncapitalized letters represent notes that are staccato (1/2 duration)
Irregular groupings are notated above the duration line
Duration letters will always appear directly above the note/fret number it represents the
duration for.  Duration letters with no fret number below them represent rests.  Multi-
bar rests are notated in the form Wxn, where n is the number of bars to rest for.  Low
melody durations appear below the staff

Tablature Legend
----------------
 h   - hammer-on
 p   - pull-off
 b   - bend
 pb  - pre-bend
 r   - bend release (if no number after the r, then release immediately)
 /\  - slide into or out of (from/to "nowhere")
 s   - legato slide
 S   - shift slide
 - natural harmonic
[n]  - artificial harmonic
n(n) - tapped harmonic
 ~   - vibrato
 tr  - trill
 T   - tap
 TP  - trem. picking
 PM  - palm muting
\n/  - tremolo bar dip; n = amount to dip
 \n  - tremolo bar down
 n/  - tremolo bar up
/n\  - tremolo bar inverted dip
 =   - hold bend; also acts as connecting device for hammers/pulls
 <> - volume swell (louder/softer)
 x   - on rhythm slash represents muted slash
 o   - on rhythm slash represents single note slash

Misc Legend
-----------
 |  - bar
||  - double bar
||o - repeat start
o|| - repeat end
*|  - double bar (ending)
 :  - bar (freetime)
 $  - Segno
 &  - Coda
Tempo markers -  = BPM(8/16=s8/s16), where s8 = swing 8ths, s16 = swing 16ths

Tap to rate this tab
 
# A B C D E F G H I J K L M N O P Q R S T U V W X Y Z