Song name
# A B C D E F G H I J K L M N O P Q R S T U V W X Y Z

Annihilator - Brain Dance tab

#----------------------------------PLEASE NOTE---------------------------------#
#This file is the author's own work and represents their interpretation of the #
#song. You may only use this file for private study, scholarship, or research. #
#------------------------------------------------------------------------------#

BRAIN DANCE
As recorded by Annihilator
(From the 1992 Album SET THE WORLD ON FIRE)

Transcribed by James Godbold
	



Gtr I (E A D G B E) - 'Untitled'
Gtr II (E A D G B E) - 'Untitled'
Gtr III (E A D G B E) - 'Untitled'

 Wacky Intro
  Q=72         H=H
  N.C.
 3/4
  Gtr I
   S   S  S  S  S  S  S  S  S  S  S  S    S   S  S  S  S  S  S  S  S  S  S  S
|-22--23-22-22-23-22-22-23-22-22-23-22-:-22--23-22-22-23-22-22-23-22-22-23-22-:
|--------------------------------------:--------------------------------------:
|--------------------------------------:--------------------------------------:
|--------------------------------------:--------------------------------------:
|--------------------------------------:--------------------------------------:
|--------------------------------------:--------------------------------------:
|
| Gtr II
|  TP                                     TP
|  H.                                    +H.
|--x-----------------------------------:-(x)s=================================:
|--------------------------------------:--------------------------------------:
|--------------------------------------:--------------------------------------:
|--------------------------------------:--------------------------------------:
|--------------------------------------:--------------------------------------:
|--------------------------------------:--------------------------------------:


  Q=140        H=H
   S   S  S  S  S  S  S  S  S  S  S  S
|-22--23-22-22-23-22-22-23-22-22-23-22---|
|----------------------------------------|
|----------------------------------------|
|----------------------------------------|
|----------------------------------------|
|----------------------------------------|
|
|  TP
|  H.
|--x-------------------------------------|
|----------------------------------------|
|----------------------------------------|
|----------------------------------------|
|----------------------------------------|
|----------------------------------------|


   S   S  S  S  S  S  S  S  S  S  S  S    S   S  S  S  S  S  S  S  S  S  S  S
|-22--23-22-22-23-22-22-23-22-22-23-22-:-22--23-22-22-23-22-22-23-22-22-23-22-:
|--------------------------------------:--------------------------------------:
|--------------------------------------:--------------------------------------:
|--------------------------------------:--------------------------------------:
|--------------------------------------:--------------------------------------:
|--------------------------------------:--------------------------------------:
|
|  TP                                     TP
| +H.                                    +H.
|-(x)----------------------------------:-(x)----------------------------------:
|--------------------------------------:--------------------------------------:
|--------------------------------------:--------------------------------------:
|--------------------------------------:--------------------------------------:
|--------------------------------------:--------------------------------------:
|--------------------------------------:--------------------------------------:


  Q=180
   S   S  S  S  S  S  S  S  S  S  S  S
|-22--23-22-22-23-22-22-23-22-22-23-22-:
|--------------------------------------:
|--------------------------------------:
|--------------------------------------:
|--------------------------------------:
|--------------------------------------:
|
|  TP
|  H.
|--x-----------------------------------:
|--------------------------------------:
|--------------------------------------:
|--------------------------------------:
|--------------------------------------:
|--------------------------------------:


 5/4
   S   S  S  S  S  S  S  S  S  S  S  S H
|-22--23-22-22-23-22-22-23-22-22-23-22-------||
|--------------------------------------------||
|--------------------------------------------||
|--------------------------------------------||
|--------------------------------------------||
|--------------------------------------7\----||
|
|  TP
| +H.                                  H
|-(x)----------------------------------------||
|--------------------------------------------||
|--------------------------------------------||
|--------------------------------------------||
|--------------------------------------------||
|--------------------------------------7\----||


   Intro Riff
    Q=142
    E5                  Bb5       E5          N.C.
   4/4
    Gtr I
    PM--------------------------------------|
    E S S S S S S S S S S +E  E   S S S S S S S  S  S  S S  S S S  E   3x
||------------------------------|---------------------10-9----8---[7]--||
||o-----------------------------|-------------8-10-11------10---9-----o||
||------------------------------|--------------------------------------||
||------------------------------|--------------------------------------||
||o-2-------------------8-(8)-8-|-------------------------------------o||
||--0-0-0-0-0-0-0-0-0-0-6-(6)-6-|-0-0-0-0-0-0--------------------------||
|
|   Gtr II
|   PM----------------|           PM--------|
|   E S S S S S S S S S S +E  E   S S S S S S S  S  S  S S  S S S  E   3x
||------------------------------|----------------------7-6----5---[4]--||
||o-----------------------------|-------------5--7--8-------7---7-----o||
||------------------------------|--------------------------------------||
||------------------------------|--------------------------------------||
||o-2-------------------8-(8)-8-|-------------------------------------o||
||--0-0-0-0-0-0-0-0-0-0-6-(6)-6-|-0-0-0-0-0-0--------------------------||


  E5                  Bb5       E5          N.C.
                               5/4
  PM----------------|           PM--------|
  E S S S S S S S S S S +E  E   S S S S S S S  S  S  S S  S S S  E   E  E
|-----------------------------|---------------------10-9----8---[7]-[6]----|
|-----------------------------|-------------8-10-11------10---9------------|
|-----------------------------|--------------------------------------------|
|-----------------------------|--------------------------------------------|
|-2-------------------8-(8)-8-|--------------------------------------------|
|-0-0-0-0-0-0-0-0-0-0-6-(6)-6-|-0-0-0-0-0-0--------------------------------|
|
| PM----------------|           PM--------|
| E S S S S S S S S S S +E  E   S S S S S S S  S  S  S S  S S S  E   E  E
|-----------------------------|----------------------7-6----5---[4]-[3]----|
|-----------------------------|-------------5--7--8-------7---7------------|
|-----------------------------|--------------------------------------------|
|---------------------3-(3)-3-|--------------------------------------------|
|-2-------------------1-(1)-1-|--------------------------------------------|
|-0-0-0-0-0-0-0-0-0-0---------|-0-0-0-0-0-0--------------------------------|


   Weird Riff
    N.C.
   9/8                                6/8
    S  S  S  S S S S S  S S S S Q.     S S S S S S S S Q
||-----------------------------------|--------------------|
||o------12-11---------10-9----------|--------------------|
||----10-------9-----8------7--------|---7---6---5---4----|
||--9------------8-7----------6------|-6---5---4---3------|
||o----------------------------------|--------------------|
||-----------------------------------|--------------------|
|
|   S  S  S  S S S S S  S S S S Q.     S S S S S S S S Q
||-----------------------------------|--------------------|
||o-------9--8----------7-6----------|--------------------|
||-----7-------6-----5------4--------|--------------------|
||--6------------5-4----------3------|---9---8---7---6----|
||o----------------------------------|-8---7---6---5------|
||-----------------------------------|--------------------|


  1.               2.
  N.C.      F#5              F#G5
 5/8
  S S S S E Q      S S S S E E E
|---------------||---------------||
|--------------o||---------------||
|---------------||---------------||
|---7---6-------||---7---6-------||
|-6---5-----4--o||-6---5-----4-5-||
|-----------2---||-----------2-3-||
|
| S S S S E Q      S S S S E E E
|---------------||---------------||
|--------------o||---------------||
|---------------||---------------||
|---------------||---------------||
|---9---8---4--o||---9---8---4-5-||
|-8---7-----2---||-8---7-----2-3-||


   Verse
    Q=134
    G5       BbG5 Bb5       G5 Bb5   C5
   4/4
    Gtrs I, II
     E  E Q  E Q  E    E  E Q  E E E  E
||------------------|-------------------|
||o-----------------|-------------------|
||------------------|-------------------|
||--------5--8-5----|-------5--8--------|
||o-(5)-5-5--8-5--8-|-(8)-8-5--8-8-8-10-|
||---3--3---------6-|--6--6------6-6--8-|


              Bb5       Eb5        F5      F#G5
    E   E  Q  E  S S  E E   +E  Q  E +E  E E E
|-------------------------|--------------------|
|-------------------------|--------------------|
|-------------------------|--------------------|
|---------10--8---------8-|-(8)-8--------------|
|-(10)-10-10--8-10p8----6-|-(6)-6--3-(3)-3-4-5-|
|---8---8------------10---|--------1-(1)-1-2-3-|


  G5       BbG5 Bb5       G5 Bb5   C5
   E  E Q  E Q  E    E  E Q  E E E  E
|-----------------|-------------------|
|-----------------|-------------------|
|-----------------|-------------------|
|-------5--8-5----|-------5--8--------|
|-(5)-5-5--8-5--8-|-(8)-8-5--8-8-8-10-|
|--3--3---------6-|--6--6------6-6--8-|


              Bb5       Eb5         F     F5F#G5
    E   E  Q  E  S S  E E   +E  E E E +E  E E E
|-------------------------|----------------------||
|-------------------------|---------------------o||
|-------------------------|----------------------||
|---------10--8---------8-|-(8)-8-8-7-(7)--------||
|-(10)-10-10--8-10p8----6-|-(6)-6-6-8-(8)-3-4-5-o||
|---8---8------------10---|---------------1-2-3--||


   Chorus
    N.C.                                          G5   F5
    E S S S S S S S S S S S S S S   E S S S S S S S E. S E.   3x
||--------------------------------|---------------------------||
||o-------------------------------|--------------------------o||
||--------------------------------|---------------------------||
||----------------------------2-3-|---------------5-5--3-3----||
||o---1-0-----0-1-3---4-3-1---0-1-|---1-0-----0-1-5-5--3-3---o||
||--0-----3-0-------0-------0-----|-0-----3-0-----3-3--1-1----||


  N.C.
  E S S S S S S S S S S +Q     S S S S S S S S S S  S S S S S S
|----------------------------|----------------------------------|
|----------------------------|----------------------------------|
|----------------------------|---------------------10-----8-----|
|----------------------------|-----5-----5-----8-9----8-9---8-9-|
|---1-0-----0-1-3---4-3-(3)--|-3-3---3-3---3-3------------------|
|-0-----3-0-------0----------|----------------------------------|


  (E5)                                                (C5)
  Gtr III
  PM-----------------------------------------------------------------|
  E   S S S S S S S S S S +S  S S S   E   S S S S S S  S  S  S S S S E
|-----------------------------------|------------------------------------|
|-----------------------------------|------------------------------------|
|-----------------------------------|------------------------------------|
|-----------------------------------|------------------------------------|
|-----------------------------------|------------------3--3--3-3-3-3-3---|
|-0---0-0-0-0-0-0-0-0-0-0-(0)-0-0-0-|-0---0-0-0-0-0-0--------------------|
|
| Gtr I
| S S S S S S S S S S S S  Q          S S S S S S S S  S  S  S S S S S S
|-----------------7-----------------|------------------8--8--8-7-7-7-5-5-|
|-7-8-8-8-8-8-7-8---8-7-7-[8]-------|-7-8-8-8-8-8-7-8--------------------|
|-----------------------------------|------------------------------------|
|-----------------------------------|------------------------------------|
|-----------------------------------|------------------------------------|
|-----------------------------------|------------------------------------|
|
| Gtr II
| S S S S S S S S S S S S  Q          S S S S S S S S  S  S  S S S S S S
|-----------------------------------|------------------------------------|
|-----------------8-----------------|-----------------10-10-10-8-8-8-7-7-|
|-7-9-9-9-9-9-7-9---9-7-7-[9]-------|-7-9-9-9-9-9-7-9--------------------|
|-----------------------------------|------------------------------------|
|-----------------------------------|------------------------------------|
|-----------------------------------|------------------------------------|


  (E5)
  PM---------------------------------
  E   S S S S S S S S S S +S  S S S
|-----------------------------------|
|-----------------------------------|
|-----------------------------------|
|-----------------------------------|
|-----------------------------------|
|-0---0-0-0-0-0-0-0-0-0-0-(0)-0-0-0-|
|
| S S S S S S S S S S S S  Q
|-----------------7-----------------|
|-7-8-8-8-8-8-7-8---8-7-7-[8]-------|
|-----------------------------------|
|-----------------------------------|
|-----------------------------------|
|-----------------------------------|
|
| S S S S S S S S S S S S  Q
|-----------------------------------|
|-----------------8-----------------|
|-7-9-9-9-9-9-7-9---9-7-7-[9]-------|
|-----------------------------------|
|-----------------------------------|
|-----------------------------------|


                  C5                 F5
 ---------------|
  E   S S S S S S  E.    S      +E    E
|------------------------------------------||
|------------------------------------------||
|------------------------------------------||
|------------------5-----5------(5)--------||
|------------------3-----3------(3)---3----||
|-0---0-0-0-0-0-0---------------------1----||
|
| S S S S S S S S  E.    S      +E    E
|------------------------------------------||
|-7-8-8-8-8-8-7-8--------------------------||
|------------------------------------------||
|------------------5-----5------(5)--------||
|------------------3-----3------(3)---3----||
|-------------------------------------1----||
|
| S S S S S S S S  E.    S      +E    E
|-----------------12----14-----(14)--------||
|-----------------15b17-17b19==(17)r-19b20-||
|-7-9-9-9-9-9-7-9--------------------------||
|------------------------------------------||
|------------------------------------------||
|------------------------------------------||


 Weird Riff
  N.C.                                                              F#G5
 9/8                                6/8                  5/8
  Gtr I
  S  S  S  S S S S S  S S S S Q.     S S S S S S S S Q    S S S S E E E
|----------------------------------|--------------------|----------------||
|------12-11---------10-9----------|--------------------|----------------||
|---10-------9-----8------7--------|---7---6---5---4----|----------------||
|-9------------8-7----------6------|-6---5---4---3------|---7---6--------||
|----------------------------------|--------------------|-6---5-----4-5--||
|----------------------------------|--------------------|-----------2-3--||
|
| Gtr II
| S  S  S  S S S S S  S S S S Q.     S S S S S S S S Q    S S S S E E E
|----------------------------------|--------------------|----------------||
|-------9--8----------7-6----------|--------------------|----------------||
|----7-------6-----5------4--------|--------------------|----------------||
|-6------------5-4----------3------|---9---8---7---6----|----------------||
|----------------------------------|-8---7---6---5------|---9---8---4-5--||
|----------------------------------|--------------------|-8---7-----2-3--||


 Verse
  G5       BbG5 Bb5       G5 Bb5   C5
 4/4
  Gtrs I, II
   E  E Q  E Q  E    E  E Q  E E E  E
|-----------------|-------------------|
|-----------------|-------------------|
|-----------------|-------------------|
|-------5--8-5----|-------5--8--------|
|-(5)-5-5--8-5--8-|-(8)-8-5--8-8-8-10-|
|--3--3---------6-|--6--6------6-6--8-|


              Bb5       Eb5        F5      F#G5
    E   E  Q  E  S S  E E   +E  Q  E +E  E E E
|-------------------------|---------------------|
|-------------------------|---------------------|
|-------------------------|---------------------|
|---------10--8---------8-|-(8)-8---------------|
|-(10)-10-10--8-10p8----6-|-(6)-6--3-(3)-3-4-5--|
|---8---8------------10---|--------1-(1)-1-2-3--|


  G5       BbG5 Bb5       G5 Bb5   C5
  Gtr I
   E  E Q  E Q  E    E  E Q  E E E  E
|-----------------|-------------------|
|-----------------|-------------------|
|-----------------|-------------------|
|-------5--8-5----|-------5--8--------|
|-(5)-5-5--8-5--8-|-(8)-8-5--8-8-8-10-|
|--3--3---------6-|--6--6------6-6--8-|
|
| Gtr II
|  E  E Q  E Q  E    E  E Q  E E E  E
|-----------------|-------------------|
|-----------------|-------------------|
|-----------------|-------------------|
|-------5--8-5----|-------5--8--------|
|-(5)-5-5--8-5--8-|-(8)-8-5--8-8-8-10-|
|--3--3---------6-|--6--6------6-6--8-|


              Bb5       Eb5         F     F5F#G5
    E   E  Q  E  S S  E E   +E  E E E +E  E E  E
|-------------------------|----------------------|
|-------------------------|----------------------|
|-------------------------|----------------------|
|---------10--8---------8-|-(8)-8-8-7-(7)--------|
|-(10)-10-10--8-10p8----6-|-(6)-6-6-8-(8)-3-4--5-|
|---8---8------------10---|---------------1-2--3-|
|
|   E   E  Q  E  S S  E E   +E  E E E +E  E E  E
|-------------------------|----------------------|
|-------------------------|-------------------11-|
|-------------------------|----------------------|
|---------10--8---------8-|-(8)-8-8-7-(7)--------|
|-(10)-10-10--8-10p8----6-|-(6)-6-6-8-(8)-3-4----|
|---8---8------------10---|---------------1-2----|


  G5           Bb5G5    Bb5         G5    Bb5      C5
   E   E  Q     E  Q     E    E   E  Q     E  E  E  E
|--------------------------|--------------------------|
|--------------------------|--------------------------|
|--------------------------|--------------------------|
|---------5-----8--5-------|---------5-----8----------|
|-(5)--5--5-----8--5-----8-|-(8)--8--5-----8--8--8-10-|
|--3---3-----------------6-|--6---6-----------6--6--8-|
|
|  E   E  E  E  E  E  E  E    E   E  E  E  E  E  E  E
|--------------------------|--------------------------|
|--------11----10-------11-|--------11----10-------11-|
|-12--12----12----10-------|-12--12----12----10-------|
|--------------------12----|--------------------10----|
|--------------------------|--------------------------|
|--------------------------|--------------------------|


                Bb5        Eb5            F5              F#5G5
    E   E  Q     E  S S  E  E   +E   Q     E     +E  E     E  E
|-----------------------------|-----------------------------------|
|-----------------------------|-----------------------------------|
|-----------------------------|-----------------------------------|
|---------10-----8----------8-|-(8)--8----------------------------|
|-(10)-10-10-----8-10p8-----6-|-(6)--6-----3-----(3)-3-----4--5---|
|---8---8---------------10----|------------1-----(1)-1-----2--3---|
|
|   E   E  E  E  E  E    E  E    E   E  E  E     +E.    S  E  E
|-----------------------------|-----------------------------------|
|---------11----10---------11-|--------11-13b15r(13)---11----11---|
|--12--12----12----10---------|-12--12--------------------12------|
|-----------------------12----|-----------------------------------|
|-----------------------------|-----------------------------------|
|-----------------------------|-----------------------------------|


  G5           Bb5G5    Bb5         G5    Bb5      C5
   E   E  Q     E  Q     E    E   E  Q     E  E  E  E
|--------------------------|--------------------------|
|--------------------------|--------------------------|
|--------------------------|--------------------------|
|---------5-----8--5-------|---------5-----8----------|
|-(5)--5--5-----8--5-----8-|-(8)--8--5-----8--8--8-10-|
|--3---3-----------------6-|--6---6-----------6--6--8-|
|
|  E   E  E  E  E  E  E  E    E   E  E  E  E  E  E  E
|--------------------------|--------------------------|
|--------11----10-------11-|--------11----10-------11-|
|-12--12----12----10-------|-12--12----12----10-------|
|--------------------12----|--------------------10----|
|--------------------------|--------------------------|
|--------------------------|--------------------------|


                Bb5        Eb5            F      F5 F#G5
    E   E  Q     E  S S  E  E   +E   E  E  E +E   E E E
|-----------------------------|-------------------------|
|-----------------------------|-------------------------|
|-----------------------------|-------------------------|
|---------10-----8----------8-|-(8)--8--8--7-(7)--------|
|-(10)-10-10-----8-10p8-----6-|-(6)--6--6--8-(8)--3-4-5-|
|---8---8---------------10----|-------------------1-2-3-|
|
|   E   E  E  E  E  E    E  E    E   E  E  E  E   E Q
|-----------------------------|-------------------------|
|---------11----10---------11-|--------11----10---------|
|--12--12----12----10---------|-12--12----12-----10-----|
|-----------------------12----|-------------------------|
|-----------------------------|-------------------------|
|-----------------------------|-------------------------|


   Chorus
    N.C.                                          G5   F5
    Gtrs I, II
    PM------------------------------------------|
    E S S S S S S S S S S S S S S   E S S S S S S S E. S E.   3x
||--------------------------------|---------------------------||
||o-------------------------------|--------------------------o||
||--------------------------------|---------------------------||
||----------------------------2-3-|---------------5-5--3-3----||
||o---1-0-----0-1-3---4-3-1---0-1-|---1-0-----0-1-5-5--3-3---o||
||--0-----3-0-------0-------0-----|-0-----3-0-----3-3--1-1----||


  N.C.                                         C#5
  PM----------------|
  E S S S S S S S S S S +Q     S S S S S S S S S S S S Q
|----------------------------|-----------------------------||
|----------------------------|-----------------------------||
|----------------------------|-----------------------------||
|----------------------------|-----5-----5-----6-6-6-6-----||
|---1-0-----0-1-3---4-3-(3)--|-3-3---3-3---3-3-4-4-4-4-----||
|-0-----3-0-------0----------|-----------------------------||


 This Song Is Very Silly
  Q=120
  C#5
  E E E E E E E E   W          E E E E E E E E   E E E E E E Q
|-----------------|----------|-----------------|-----------------|
|-----------------|----------|-----------------|-----------------|
|-----0-------0---|----------|-----0-------0---|-----------------|
|---6---6---6---6-|----------|---6---6---6---6-|-----------2-1---|
|-4-------4-------|----------|-4-------4-------|-----0-2-3-------|
|-----------------|----------|-----------------|-2-4-------------|
|
| Gtr II
| W                 W          W                 E E E E E E Q
|-----------------|----------|-----------------|-----------------|
|-----------------|----------|-----------------|-----------------|
|-----------------|----------|-----------------|-----------------|
|-----------------|----------|-----------------|-----------5-4---|
|-----------------|----------|-----------------|-----0-2-3-------|
|-----------------|----------|-----------------|-2-4-------------|


  C#5
                              |-3-|
  E E E E E E E E   E E E E E S S S E E   E  E E E E E Q     E E E E E E Q
|-----------------|---------------------|------------------|-----------------|
|-----------------|---------------------|------------------|-----------------|
|-----0-------0---|---------------------|------0-----------|-----------------|
|---6---6---6---6-|---------------------|----6---6---6-----|-----------2-1---|
|-4-------4-------|-----0-2-3-2-3-2-0---|-4--------4---x\--|-----0-2-3-------|
|-----------------|-2-4---------------2-|------------------|-2-4-------------|
|
|                             |-3-|
| W                 E E E E E S S S E E   H.           Q     E E E E E E Q
|-----------------|---------------------|------------------|-----------------|
|-----------------|---------------------|------------------|-----------------|
|-----------------|---------------------|------------------|-----------------|
|-----------------|---------------------|------------------|-----------5-4---|
|-----------------|-----0-2-3-2-3-2-0---|--------------x\--|-----0-2-3-------|
|-----------------|-2-4---------------2-|------------------|-2-4-------------|


  N.C.
                                        ~~~~~~~
  |-3-| |-3-| |-3-| |-3-|   |-3-| |-3-|
  E E E E E E E E E E E E   E E E E E E Q  +Q
|-------------------------|---------------------|
|-------------------------|---------------------|
|-------------------------|---------------------|
|-------------------------|---------------------|
|-------2---6-------5-6-5-|-------4---5---------|
|-4-4-4---4---4-4-4-------|-0-0-0---0---6--(6)--|
|
|                                       ~~~~~~~
| |-3-| |-3-| |-3-| |-3-|   |-3-| |-3-|
| E E E E E E E E E E E E   E E E E E E Q  +Q
|-------------------------|---------------------|
|-------------------------|---------------------|
|-------------------------|---------------------|
|-------------------------|---------------------|
|-------2---6-------5-6-5-|-------4---5---------|
|-4-4-4---4---4-4-4-------|-0-0-0---0---6--(6)--|


  |-3-| |-3-| |-3-| |-3-|   |-3-| |-3-|  |-3-|
  E E E E E E E E E E E E   E E E E E E  E E E Q
|-------------------------|-------------10-9-8-7---|
|-------------------------|------------------------|
|-------------------------|------------------------|
|-------------------------|------------------------|
|-------2---6-------5-6-5-|-------4---5------------|
|-4-4-4---4---4-4-4-------|-0-0-0---0--------------|
|
| |-3-| |-3-| |-3-| |-3-|   |-3-| |-3-|  |-3-|
| E E E E E E E E E E E E   E E E E E E  E E E Q
|-------------------------|--------------7-6-5-4---|
|-------------------------|------------------------|
|-------------------------|------------------------|
|-------------------------|------------------------|
|-------2---6-------5-6-5-|-------4---5------------|
|-4-4-4---4---4-4-4-------|-0-0-0---0--------------|


  N.C.
                                        ~~~~~
  |-3-| |-3-| |-3-| |-3-|   |-3-| |-3-|
  E E E E E E E E E E E E   E E E E E E Q  Q
|-------------------------|-------------------|
|-------------------------|-------------------|
|-------------------------|-------------------|
|-------------------------|----------------8--|
|-------2---6-------5-6-5-|-------4---5-------|
|-4-4-4---4---4-4-4-------|-0-0-0---0---6-----|
|
|                                       ~~~~~
| |-3-| |-3-| |-3-| |-3-|   |-3-| |-3-|
| E E E E E E E E E E E E   E E E E E E Q  Q
|-------------------------|-------------------|
|-------------------------|-------------------|
|-------------------------|-------------------|
|-------------------------|----------------8--|
|-------2---6-------5-6-5-|-------4---5-------|
|-4-4-4---4---4-4-4-------|-0-0-0---0---6-----|


                           5/4
  |-3-| |-3-| |-3-| |-3-|   |-3-| |-3-|  |-3-|
  E E E E E E E E E E E E   E E E E E E  E E E Q  Q
|-------------------------|-------------10-9-8-7-------||
|-------------------------|----------------------------||
|-------------------------|----------------------------||
|-------------------------|----------------------------||
|-------2---6-------5-6-5-|-------4---5----------------||
|-4-4-4---4---4-4-4-------|-0-0-0---0-------------x\---||
|
| |-3-| |-3-| |-3-| |-3-|   |-3-| |-3-|  |-3-|
| E E E E E E E E E E E E   E E E E E E  E E E Q  Q
|-------------------------|--------------7-6-5-4-------||
|-------------------------|----------------------------||
|-------------------------|----------------------------||
|-------------------------|----------------------------||
|-------2---6-------5-6-5-|-------4---5-----------x\---||
|-4-4-4---4---4-4-4-------|-0-0-0---0------------------||


   Bridge
    Q=133
    (E5)                                                (C5)
   4/4
    Gtr III
    PM-----------------------------------------------------------------|
    E   S S S S S S S S S S +S  S S S   E   S S S S S S  S  S  S S S S E
||------------------------------------|------------------------------------|
||o-----------------------------------|------------------------------------|
||------------------------------------|------------------------------------|
||------------------------------------|------------------------------------|
||o-----------------------------------|------------------3--3--3-3-3-3-3---|
||--0---0-0-0-0-0-0-0-0-0-0-(0)-0-0-0-|-0---0-0-0-0-0-0--------------------|
|
|   Gtr I
|   S S S S S S S S S S S S  Q          S S S S S S S S  S  S  S S S S S S
||------------------7-----------------|------------------8--8--8-7-7-7-5-5-|
||o-7-8-8-8-8-8-7-8---8-7-7-[8]-------|-7-8-8-8-8-8-7-8--------------------|
||------------------------------------|------------------------------------|
||------------------------------------|------------------------------------|
||o-----------------------------------|------------------------------------|
||------------------------------------|------------------------------------|
|
|   Gtr II
|   S S S S S S S S S S S S  Q          S S S S S S S S  S  S  S S S S S S
||------------------------------------|------------------------------------|
||o-----------------8-----------------|-----------------10-10-10-8-8-8-7-7-|
||--7-9-9-9-9-9-7-9---9-7-7-[9]-------|-7-9-9-9-9-9-7-9--------------------|
||------------------------------------|------------------------------------|
||o-----------------------------------|------------------------------------|
||------------------------------------|------------------------------------|


  (E5)
  PM---------------------------------
  E   S S S S S S S S S S +S  S S S
|-----------------------------------|
|-----------------------------------|
|-----------------------------------|
|-----------------------------------|
|-----------------------------------|
|-0---0-0-0-0-0-0-0-0-0-0-(0)-0-0-0-|
|
| S S S S S S S S S S S S  Q
|-----------------7-----------------|
|-7-8-8-8-8-8-7-8---8-7-7-[8]-------|
|-----------------------------------|
|-----------------------------------|
|-----------------------------------|
|-----------------------------------|
|
| S S S S S S S S S S S S  Q
|-----------------------------------|
|-----------------8-----------------|
|-7-9-9-9-9-9-7-9---9-7-7-[9]-------|
|-----------------------------------|
|-----------------------------------|
|-----------------------------------|


  1.
                  C5                 F5
 ---------------|
  E   S S S S S S  E.    S      +E    E
|-------------------------------------------||
|------------------------------------------o||
|-------------------------------------------||
|------------------5-----5------(5)---------||
|------------------3-----3------(3)---3----o||
|-0---0-0-0-0-0-0---------------------1-----||
|
| S S S S S S S S  E.    S      +E    E
|-------------------------------------------||
|-7-8-8-8-8-8-7-8--------------------------o||
|-------------------------------------------||
|------------------5-----5------(5)---------||
|------------------3-----3------(3)---3----o||
|-------------------------------------1-----||
|
| S S S S S S S S  E.    S      +E    E
|-----------------12----14-----(14)---------||
|-----------------15b17-17b19==(17)r-19b20-o||
|-7-9-9-9-9-9-7-9---------------------------||
|-------------------------------------------||
|------------------------------------------o||
|-------------------------------------------||


  2.
                  C5               B5     C5
  PM------------|
  E   S S S S S S  Q.               S     S
|-------------------------------------------|
|-------------------------------------------|
|-------------------------------------------|
|------------------5----------------4-----5-|
|------------------3----------------2-----3-|
|-0---0-0-0-0-0-0---------------------------|
|
| S S S S S S S S  Q.               S     S
|-------------------------------------------|
|-7-8-8-8-8-8-7-8---------------------------|
|-------------------------------------------|
|------------------5----------------4-----5-|
|------------------3----------------2-----3-|
|-------------------------------------------|
|
| S S S S S S S S  E.    S     +E   E
|-----------------12----14----(14)-15-------|
|-----------------15b17-17b19-(17)-18b20====|
|-7-9-9-9-9-9-7-9---------------------------|
|-------------------------------------------|
|-------------------------------------------|
|-------------------------------------------|


                   D5
   +E   S S S S  S  S      +S   S S S S S S  S
|--------------------------------------------------||
|--------------------------------------------------||
|--------------------------------------------------||
|--(5)--5-5-5-5--5--7------(7)--7-7-7-7-7-7--------||
|--(3)--3-3-3-3--3--5------(5)--5-5-5-5-5-5--------||
|--------------------------------------------0-----||
|
|  +E   S S S S  S  S      +S   S S S S S S  S
|--------------------------------------------------||
|--------------------------------------------------||
|--------------------------------------------------||
|--(5)--5-5-5-5--5--7------(7)--7-7-7-7-7-7--------||
|--(3)--3-3-3-3--3--5------(5)--5-5-5-5-5-5--------||
|--------------------------------------------0-----||
|
|                   ~~~~~~~~~~~~
|  +Q.           S  S      +Q..              S
|-(15)----------17---------------------------------||
|-(18)r------------20b22==(20)r-------------15b17==||
|--------------------------------------------------||
|--------------------------------------------------||
|--------------------------------------------------||
|--------------------------------------------------||


 Guitar Solo
  (E5)                                            C5
  Gtrs I, III
    PM-----------------------------------------|
    E       S  S  S  S  S  S  S  S  S  S  S  S  S  S
|----------------------------------------------------|
|----------------------------------------------------|
|----------------------------------------------------|
|--------------------------------------------------5-|
|--------------------------------------------------3-|
|---0-------0--0--0--0--0--0--0--0--0--0--0--0--0----|
|
| Gtr II
|  +S    S  S  S  S  S  S  S  S  S  S  S  S  S  S  S
|-------12-------14-12----12-------------------------|
|-(15)r----15-12-------15----15-12----12-------------|
|----------------------------------14----15-14-12----|
|-------------------------------------------------14-|
|----------------------------------------------------|
|----------------------------------------------------|


                            D5                        B5
  +Q..                       S +Q..                    S
|---------------------------------------------------------|
|---------------------------------------------------------|
|---------------------------------------------------------|
|-(5)------------------------7-(7)---------------------4--|
|-(3)------------------------5-(5)---------------------2--|
|---------------------------------------------------------|
|
|  S    S  S  S  S  T  T  S  S  S    S  S  S  S  S  S  S
|---------------------------------------------------------|
|-14------------------------------------------------------|
|-14------12-------12----12----12-------------------------|
|------14----14-12----14----14------14-12----12-----------|
|-----------------------------------------14----14-13-12--|
|---------------------------------------------------------|


  +Q..                   S S  S S  S S  S S  S
|----------------------------------------------|
|----------------------------------------------|
|----------------------------------------------|
|-(4)------------------------------------------|
|-(2)--------------------2----3----4----5----6-|
|----------------------------------------------|
|
|  S    S  S  S  S  S  S S S  S S  S S  S S  S
|----------------------------------------------|
|----------------------------------------------|
|----------------------------------------------|
|----------------------------10---11---12---13-|
|-10---12-10----10-------9---------------------|
|------------12----12-10-----------------------|


   PM------------------------------|
   E   S S S S S S S S S S +S  S S S
|-------------------------------------|
|-------------------------------------|
|-------------------------------------|
|-------------------------------------|
|-------------------------------------|
|--0---0-0-0-0-0-0-0-0-0-0-(0)-0-0-0--|
|
|  \7__________________________________
|  W
|-<5>---------------------------------|
|-------------------------------------|
|-------------------------------------|
|-------------------------------------|
|-------------------------------------|
|-------------------------------------|


  (E5)              C5              F5
    PM------------|
    E   S S S S S S   S   S S S +E  E
|-------------------------------------|
|-------------------------------------|
|-------------------------------------|
|---------------------5---5-5-5-(5)---|
|---------------------3---3-3-3-(3)-3-|
|---0---0-0-0-0-0-0-----------------1-|
|
|                     |
|  +H                +H
|-(<5>)-------------(<5>)-------------|
|-------------------------------------|
|-------------------------------------|
|-------------------------------------|
|-------------------------------------|
|-------------------------------------|


  (E5)                                                C5          F5
  PM------------------------------------------------|
  E   S S S S S S S S S S +S  S S S    E  S S S S S S S S S S +E  E
|-----------------------------------|--------------------------------|
|-----------------------------------|--------------------------------|
|-----------------------------------|--------------------------------|
|-----------------------------------|-----------------5-5-5-5-(5)----|
|-----------------------------------|-----------------3-3-3-3-(3)-3--|
|-0---0-0-0-0-0-0-0-0-0-0-(0)-0-0-0-|--0--0-0-0-0-0-0-------------1--|
|
| \4___________________________________|
|                                      ~~~
| W                                    W
|-----------------------------------|--------------------------------|
|-----------------------------------|--------------------------------|
|-0---------------------------------|-<7>----------------------------|
|-----------------------------------|--------------------------------|
|-----------------------------------|--------------------------------|
|-----------------------------------|--------------------------------|


  Gtrs I, II
  S S  S  S  S S  S  S  S  S  S  S  S  S  S  S
|----------------------------------------------|
|----------------------------------------------|
|--------------9-------------------------------|
|-----------12---------------------------------|
|-----11-10------12----11-11-------13-13-------|
|-9-8---------------10-------12-10-------14-12-|


                                                 G5F#F5  F5G5
                                                3/4
  S S  S  S  S S  S  S  S  S  S  S  S  S  S  S   E E E E E E
|----------------------------------------------|-------------||
|----------------------------------------------|-------------||
|--------------9-------------------------------|-------------||
|-----------12---------------------------------|-------------||
|-----11-10------12----11-11-------13-13-------|-5-4-3---3-5-||
|-9-8---------------10-------12-10-------14-12-|-3-2-1---1-3-||


 Verse
  G5       BbG5 Bb5       G5 Bb5   C5
 4/4
  Gtr I
   E  E Q  E Q  E    E  E Q  E E E  E
|-----------------|-------------------|
|-----------------|-------------------|
|-----------------|-------------------|
|-------5--8-5----|-------5--8--------|
|-(5)-5-5--8-5--8-|-(8)-8-5--8-8-8-10-|
|--3--3---------6-|--6--6------6-6--8-|
|
| Gtr II
|  E  E Q  E Q  E    E  E Q  E E E  E
|-----------------|-------------------|
|-----------------|-------------------|
|-----------------|-------------------|
|-------5--8-5----|-------5--8--------|
|-(5)-5-5--8-5--8-|-(8)-8-5--8-8-8-10-|
|--3--3---------6-|--6--6------6-6--8-|


              Bb5       Eb5         F     F5F#G5
    E   E  Q  E  S S  E E   +E  E E E +E  E E  E
|-------------------------|-----------------------|
|-------------------------|-----------------------|
|-------------------------|-----------------------|
|---------10--8---------8-|-(8)-8-8-7-(7)---------|
|-(10)-10-10--8-10p8----6-|-(6)-6-6-8-(8)-3-4--5--|
|---8---8------------10---|---------------1-2--3--|
|
|   E   E  Q  E  S S  E E   +E  E E E +E  E E  E
|-------------------------|-----------------------|
|-------------------------|-------------------11--|
|-------------------------|-----------------------|
|---------10--8---------8-|-(8)-8-8-7-(7)---------|
|-(10)-10-10--8-10p8----6-|-(6)-6-6-8-(8)-3-4-----|
|---8---8------------10---|---------------1-2-----|


  G5           Bb5G5    Bb5         G5    Bb5      C5
   E   E  Q     E  Q     E    E   E  Q     E  E  E  E
|--------------------------|--------------------------|
|--------------------------|--------------------------|
|--------------------------|--------------------------|
|---------5-----8--5-------|---------5-----8----------|
|-(5)--5--5-----8--5-----8-|-(8)--8--5-----8--8--8-10-|
|--3---3-----------------6-|--6---6-----------6--6--8-|
|
|  E   E  E  E  E  E  E  E    E   E  E  E  E  E  E  E
|--------------------------|--------------------------|
|--------11----10-------11-|--------11----10-------11-|
|-12--12----12----10-------|-12--12----12----10-------|
|--------------------12----|--------------------10----|
|--------------------------|--------------------------|
|--------------------------|--------------------------|


                Bb5        Eb5            F      F5 F#G5
    E   E  Q     E  S S  E  E   +E   E  E  E +E   E E E
|-----------------------------|-------------------------|
|-----------------------------|-------------------------|
|-----------------------------|-------------------------|
|---------10-----8----------8-|-(8)--8--8--7-(7)--------|
|-(10)-10-10-----8-10p8-----6-|-(6)--6--6--8-(8)--3-4-5-|
|---8---8---------------10----|-------------------1-2-3-|
|
|   E   E  E  E  E  E    E  E    E   E  E  E  E   E Q
|-----------------------------|-------------------------|
|---------11----10---------11-|--------11----10---------|
|--12--12----12----10---------|-12--12----12-----10-----|
|-----------------------12----|-------------------------|
|-----------------------------|-------------------------|
|-----------------------------|-------------------------|


   Chorus
    N.C.                                          G5   F5
    Gtrs I, II
    E S S S S S S S S S S S S S S   E S S S S S S S E. S E.   3x
||--------------------------------|---------------------------||
||o-------------------------------|--------------------------o||
||--------------------------------|---------------------------||
||----------------------------2-3-|---------------5-5--3-3----||
||o---1-0-----0-1-3---4-3-1---0-1-|---1-0-----0-1-5-5--3-3---o||
||--0-----3-0-------0-------0-----|-0-----3-0-----3-3--1-1----||


                                               C#5
  E S S S S S S S S S S +Q     S S S S S S S S S S S S +Q
|----------------------------|--------------------------------|
|----------------------------|--------------------------------|
|----------------------------|--------------------------------|
|----------------------------|-----5-----5-----6-6-6-6-(6)\---|
|---1-0-----0-1-3---4-3-(3)--|-3-3---3-3---3-3-4-4-4-4-(4)\---|
|-0-----3-0-------0----------|--------------------------------|


 Outro
  Q=120
  Gtr I
  W                         W
|-------------------------|-------------------------|
|-------------------------|-------------------------|
|-------------------------|-------------------------|
|-------------------------|-------------------------|
|-------------------------|-------------------------|
|-------------------------|-------------------------|
|
| Gtr II
| |-3-| |-3-| |-3-| |-3-|   |-3-| |-3-| |-3-| |-3-|
| E E E E E E E E E E E E   E E E E E E E E E E E E
|-7-----------7-----------|-6-----------6-----------|
|---8-7---7-8---8-7---7-8-|---8-7---7-8---8-7---7-8-|
|-------9-----------9-----|-------9-----------9-----|
|-------------------------|-------------------------|
|-------------------------|-------------------------|
|-------------------------|-------------------------|


    E5                           Bb5
    Gtrs I, III
                        |-3--|         |-3-|       |-3-|
    H.                 +Q    E   q     E E E q     E E E
||-----------------------------|-------------------------|
||o----------------------------|-------------------------|
||-----------------------------|-------------------------|
||-----------------------------|-3-----3-3-3-3-----3-3-3-|
||o-2------------------(2)---2-|-1-----1-1-1-1-----1-1-1-|
||--0------------------(0)---0-|-------------------------|
|
|   |-3--| |-3-| |-3-|  |-3--|   |-3-| |-3-| |-3-| |-3-|
|   E  E E E E E E E E  E  E E   E E E E E E E E E E E E
||--7------------7-------------|-6-----------6-----------|
||o----8-7---7-8---8-7-----7-8-|---8-7---7-8---8-7---7-8-|
||---------9------------9------|-------9-----------9-----|
||-----------------------------|-------------------------|
||o----------------------------|-------------------------|
||-----------------------------|-------------------------|


  E5                           Bb5
                      |-3--|         |-3-|       |-3-|
  H.                 +Q    E   q     E E E q     E E E    5x
|----------------------------|----------------------------||
|----------------------------|---------------------------o||
|----------------------------|----------------------------||
|----------------------------|-3-----3-3-3-3-----3-3-3----||
|-2------------------(2)---2-|-1-----1-1-1-1-----1-1-1---o||
|-0------------------(0)---0-|----------------------------||
|
| |-3--| |-3-| |-3-|  |-3--|   |-3-| |-3-| |-3-| |-3-|
| E  E E E E E E E E  E  E E   E E E E E E E E E E E E    5x
|-7------------7-------------|-6-----------6--------------||
|----8-7---7-8---8-7-----7-8-|---8-7---7-8---8-7---7-8---o||
|--------9------------9------|-------9-----------9--------||
|----------------------------|----------------------------||
|----------------------------|---------------------------o||
|----------------------------|----------------------------||


  E5              Bb5                 E5              Bb5
           |3-|      |-3-|    |-3-|            |3-|      |-3-|    |-3-|
  H.      +Q  E   q  E E E q  E E E   H.      +Q  E   q  E E E q  E E E
|---------------|-------------------|---------------|-------------------|
|---------------|-------------------|---------------|-------------------|
|---------------|-------------------|---------------|-------------------|
|---------------|-3--3-3-3-3--3-3-3-|---------------|-3--3-3-3-3--3-3-3-|
|-2-------(2)-2-|-1--1-1-1-1--1-1-1-|-2-------(2)-2-|-1--1-1-1-1--1-1-1-|
|-0-------(0)-0-|-------------------|-0-------(0)-0-|-------------------|


     |-3-|    |-3-|      |-3-|    |-3-|
  q  E E E q  E E E   q  E E E q  E E E
|-------------------|-------------------*|
|-------------------|-------------------*|
|-------------------|-------------------*|
|-3--3-3-3-3--3-3-3-|-3--3-3-3-3--3-3-3-*|
|-1--1-1-1-1--1-1-1-|-1--1-1-1-1--1-1-1-*|
|-------------------|-------------------*|



Duration Legend
---------------
W - whole; H - half; Q - quarter; E - 8th; S - 16th; T - 32nd; X - 64th; a - acciaccatura
+ - note tied to previous; . - note dotted; .. - note double dotted
Uncapitalized letters represent notes that are staccato (1/2 duration)
Irregular groupings are notated above the duration line
Duration letters will always appear directly above the note/fret number it represents the
duration for.  Duration letters with no fret number below them represent rests.  Multi-
bar rests are notated in the form Wxn, where n is the number of bars to rest for.  Low
melody durations appear below the staff

Tablature Legend
----------------
 h   - hammer-on
 p   - pull-off
 b   - bend
 pb  - pre-bend
 r   - bend release (if no number after the r, then release immediately)
 /\  - slide into or out of (from/to "nowhere")
 s   - legato slide
 S   - shift slide
 - natural harmonic
[n]  - artificial harmonic
n(n) - tapped harmonic
 ~   - vibrato
 tr  - trill
 T   - tap
 TP  - trem. picking
 PM  - palm muting
\n/  - tremolo bar dip; n = amount to dip
 \n  - tremolo bar down
 n/  - tremolo bar up
/n\  - tremolo bar inverted dip
 =   - hold bend; also acts as connecting device for hammers/pulls
 <> - volume swell (louder/softer)
 x   - on rhythm slash represents muted slash
 o   - on rhythm slash represents single note slash

Misc Legend
-----------
 |  - bar
||  - double bar
||o - repeat start
o|| - repeat end
*|  - double bar (ending)
 :  - bar (freetime)
 $  - Segno
 &  - Coda
Tempo markers -  = BPM(8/16=s8/s16), where s8 = swing 8ths, s16 = swing 16ths

Tap to rate this tab
# A B C D E F G H I J K L M N O P Q R S T U V W X Y Z