Song name
# A B C D E F G H I J K L M N O P Q R S T U V W X Y Z

Annihilator - Schizos Are Never Alone tab

Help us improve GuitareTab! Take a short survey!
#----------------------------------PLEASE NOTE---------------------------------#
#This file is the author's own work and represents their interpretation of the #
#song. You may only use this file for private study, scholarship, or research. #
#------------------------------------------------------------------------------##
(If anyone would like to use these tabs for commercial use ie. Websites etc.
                 please seek permission as copyrights are held)

Annihilator - Schizos (Are Never Alone) Part III

tabbed by ol753
www.annihilatormetal.com
ol753_357lo@yahoo.co.uk

Tuning - E A D G B E


Both Gtrs
play 8 times
|---0------------------0----|
|-----8--------8-----8------|
|-------7----7-----7--------|
|---------10-----9----------|
|---------------------------|
|-0-------------------------|


Gtr 3
3rd time
|------------------------------|
|-----------------7------------|
|-7h9----------------7--7S9----|
|------------------------------|
|------------------------------|
|------------------------------|


Gtr 4
|------------------------------------|
|-------------------10---------------|
|-11h12-----------------11--11S12----|
|------------------------------------|
|------------------------------------|
|------------------------------------|


Gtr 3
5th time
play twice
|----------------------------------------------------------|
|------7-8-7h8p7---/10--8--7-----------7-8-7h8p7-----------|
|-7h9------------9----------------7h9------------7--7S9----|
|-----------------------------9----------------------------|
|----------------------------------------------------------|
|----------------------------------------------------------|


Gtr 4
joins 2nd time
|-------------------------------------------------------------------------------|
|--------10-12-10h12p10----/13--12--10--------------10-12-10h12p10--------------|
|-11h12-----------------12-------------------11h12-----------------11--11S12----|
|---------------------------------------12--------------------------------------|
|-------------------------------------------------------------------------------|
|-------------------------------------------------------------------------------|


Gtr 1
play 4 times
|---0-----------------0----|
|-----3-------3-----3------|
|-------2---2-----2--------|
|-0-------5-----3----------|
|--------------------------|
|--------------------------|


Gtr 2
play 4 times
|---0-----------------0----|
|-----6-------6-----6------|
|-------5---5-----5--------|
|-0-------8-----7----------|
|--------------------------|
|--------------------------|


Gtr 3
play twice
|---------------------------------------------------------|
|------5-6-5h6p5---/8--6--5-----------5-6-5h6p5-----------|
|-5h7------------7---------------5h7------------5--5S7----|
|----------------------------7----------------------------|
|---------------------------------------------------------|
|---------------------------------------------------------|


Gtr 4
2nd time
|--------------------------------------------------------------------|
|-------8-10-8h10p8----/11--10--8-------------8-10-8h10p8------------|
|-9h10--------------10------------------9h10--------------9--9S10----|
|----------------------------------10--------------------------------|
|--------------------------------------------------------------------|
|--------------------------------------------------------------------|


Both Gtrs
play 4 times
|---0------------------0----|
|-----8--------8-----8------|
|-------7----7-----7--------|
|---------10-----9----------|
|---------------------------|
|-0-------------------------|


Gtr 3
play twice
|----------------------------------------------------------|
|------7-8-7h8p7---/10--8--7-----------7-8-7h8p7-----------|
|-7h9------------9----------------7h9------------7--7S9----|
|-----------------------------9----------------------------|
|----------------------------------------------------------|
|----------------------------------------------------------|


Gtr 4
play twice
|-------------------------------------------------------------------------------|
|--------10-12-10h12p10----/13--12--10--------------10-12-10h12p10--------------|
|-11h12-----------------12-------------------11h12-----------------11--11S12----|
|---------------------------------------12--------------------------------------|
|-------------------------------------------------------------------------------|
|-------------------------------------------------------------------------------|


Both Gtrs
play 3 times
|---0------------------0----|
|-----8--------8-----8------|
|-------7----7-----7--------|
|---------10-----9----------|
|---------------------------|
|-0-------------------------|


4th time
|---0------------------0-------|
|-----8--------8-----8----8----|
|-------7----7-----7-----------|
|---------10-----9-------------|
|------------------------------|
|-0----------------------------|


Gtr 1
play 8 times
  PM--|
|------------|
|------------|
|------------|
|------------|
|-------2----|
|-0-0-0-0----|


Gtr 2
play 8 times
  PM--|    PM        PM|
|-----------------------------------|
|-----------------------------------|
|-----------------------------------|
|-----------------------------------|
|-------2----4S5-3S4-----4S5-3S4----|
|-0-0-0-0--0-2S3-1S2-0-0-2S3-1S2----|


Both Gtrs
play 4 times
  PM--|    PM        PM|
|-----------------------------------|
|-----------------------------------|
|-----------------------------------|
|-----------------------------------|
|-------2----5S6-4S5-----5S6-4S5----|
|-0-0-0-0--0-3S4-2S3-0-0-3S4-2S3----|


Both Gtrs
play twice
  PM--|    PM        PM|
|-----------------------------------|
|-----------------------------------|
|-----------------------------------|
|-----------------------------------|
|-------2----5S6-3S4-----5S6-3S4----|
|-0-0-0-0--0-3S4-1S2-0-0-3S4-1S2----|


Both Gtrs
play 3 times
  PM--------|    PM        PM|
|-----------------------------------------|
|-----------------------------------------|
|-----------------------------------------|
|-----------------------------------------|
|-------------2----5S6-3S4-----5S6-3S4----|
|-0-0-0-0-0-0-0--0-3S4-1S2-0-0-3S4-1S2----|


  PM--|    PM        PM|
|-----------------------------------|
|-----------------------------------|
|-----------------------------------|
|-----------------------------------|
|-------2----5S6-3S4-----5S6-3S4----|
|-0-0-0-0--0-3S4-1S2-0-0-3S4-1S2----|


Both Gtrs
  PM--------|
|------------------|
|------------------|
|------------------|
|------------------|
|-------------2----|
|-0-0-0-0-0-0-0----|


Gtr 2
play twice
|----------------------------------------------------------------------|
|----------------------------------------------------------------------|
|----------------------------------------------------------------------|
|----------------------------------------------------------------------|
|-8-8-8-8-8-8---7-7-7-7-7-7---10-10-10-10-10-10---11-11-11-11-11-11----|
|-6-6-6-6-6-6---6-6-6-6-6-6----6--6--6--6--6--6----6--6--6--6--6--6----|


Both Gtrs
play twice, Gtr 3 Lead (to be added)
|----------------------------------------------------------------------|
|----------------------------------------------------------------------|
|----------------------------------------------------------------------|
|----------------------------------------------------------------------|
|-8-8-8-8-8-8---7-7-7-7-7-7---10-10-10-10-10-10---11-11-11-11-11-11----|
|-6-6-6-6-6-6---6-6-6-6-6-6----6--6--6--6--6--6----6--6--6--6--6--6----|


Gtr 1
play 4 times
  PM|         PM|                     PM|         PM|         PM|
|------------------------------------------------------------------------------|
|-------------------------16b18-16b18-----------------------------9b11-9b11----|
|------------------------------------------------------------------------------|
|------------------------------------------------------------------------------|
|-----5S6-3S4-----5S6-3S4-----------------5S6-3S4-----5S6-3S4------------------|
|-0-0-3S4-1S2-0-0-3S4-1S2-------------0-0-3S4-1S2-0-0-3S4-1S2-0-0--------------|


Gtr 2
play 4 times
  PM|         PM|         PM|             PM|         PM|         PM|
|------------------------------------------------------------------------------------|
|-----------------------------20b21-20b21-----------------------------13b14-13b14----|
|------------------------------------------------------------------------------------|
|------------------------------------------------------------------------------------|
|-----5S6-3S4-----5S6-3S4---------------------5S6-3S4-----5S6-3S4--------------------|
|-0-0-3S4-1S2-0-0-3S4-1S2-0-0-------------0-0-3S4-1S2-0-0-3S4-1S2-0-0----------------|


Both Gtrs
play 4 times, Gtr 3 Lead (to be added)
|----------------------------------------------------------------------------|
|----------------------------------------------------------------------------|
|----------------------------------------------------------------------------|
|----------------------------------------------------------------------------|
|-8-8-8-8-8-8---7-7-7-7-7-7---7-10-10-10-10-10-10---11-11-11-11-11-11--11----|
|-6-6-6-6-6-6---6-6-6-6-6-6---6--6--6--6--6--6--6----6--6--6--6--6--6---6----|


Gtr 1
                                PM--|
|----------------------------------------|
|----------------------------------------|
|----------------------------------------|
|----------------------------------------|
|-8---------------8-8--------------------|
|-6---------------6-6-----------6-5-4----|


|------------------------|
|------------------------|
|------------------------|
|------------------------|
|-4---------------8-8----|
|-2---------------6-6----|


Gtr 2
play 3 times
  PM------------------------------------------------------------| 
|--------------------------------------------------------------------|
|--------------------------------------------------------------------|
|--------------------------------------------------------------------|
|--------------------------------------------------------------------|
|-7-7-7-7-1-1-1-1-4-4-4-4-8-8-8-8-7-7-7-7-1-1-1-1-4-4-4-4-6-6-6-6----|
|--------------------------------------------------------------------|


4th time
  PM--------------------------------------------|   PM
|------------------------------------------------------------|
|------------------------------------------------------------|
|------------------------------------------------------------|
|-------------------------------------------------6---8S9----|
|-7-7-7-7-1-1-1-1-4-4-4-4-8-8-8-8-7-7-7-7-1-1-1-1-4---6S7----|
|---------------------------------------------------0--------|


Both Gtrs
play twice
  PM|   PM  PM     PM|   PM  PM    PM|   PM  PM     PM|   PM  PM
|----------------------------------------------------------------------|
|----------------------------------------------------------------------|
|----------------------------------------------------------------------|
|---------6---10S9---------6---8S9---------6---10S9---------6---8S9----|
|-----8---4----8S7-----8---4---6S7-----8---4----8S7-----8---4---6S7----|
|-0-0-6-0---0------0-0-6-0---0-----0-0-6-0---0------0-0-6-0---0--------|


Both Gtrs
play 4 times, Gtr 3 Lead (to be added)
   PM  PM  PM     PM|   PM  PM    PM|   PM  PM     PM|   PM  PM
|---------------------------------------------------------------------|
|---------------------------------------------------------------------|
|---------------------------------------------------------------------|
|--------6---10S9---------6---8S9---------6---10S9---------6---8S9----|
|----8---4----8S7-----8---4---6S7-----8---4----8S7-----8---4---6S7----|
|--0-6-0---0------0-0-6-0---0-----0-0-6-0---0------0-0-6-0---0--------|


Both Gtrs
play twice
              PM                        PM
|--------------------------------------------------------|
|--------------------------------------------------------|
|--------------------------------------------------------|
|--------------------------------------------------------|
|-6--6-6-6-6----6--6-6--6-6-6--6-6-6-6----6--6-6--6-6----|
|-4--4-4-4-4--0-0--0-0--0-0-2--2-2-2-2--0-0--0-0--0-0----|


Gtr 3
play twice
|----------------------------------------------------------------|
|----------------------------------------------------------------|
|-------8--8-----------4--4-----------6--6-----------4--4--------|
|-6-8-9------9---2-4-6------6-4-4-6-8------8-6-2-4-6------6-4----|
|----------------------------------------------------------------|
|----------------------------------------------------------------|


Both Gtrs
play twice
              PM                         PM
|----------------------------------------------------------|
|----------------------------------------------------------|
|----------------------------------------------------------|
|----------------------------------------------------------|
|-6--6-6-6-6----2--2-2--2--2-4--4-4-4-4----2--2-2--2--2----|
|-4--4-4-4-4--0-0--0-0--0--0-2--2-2-2-2--0-0--0-0--0--0----|


Gtr 3
play twice
|----------------------------------------------------------------|
|----------------------------------------------------------------|
|-------8--8-----------4--4-----------6--6-----------4--4--------|
|-6-8-9------9---2-4-6------6-4-4-6-8------8-6-2-4-6------6-4----|
|----------------------------------------------------------------|
|----------------------------------------------------------------|


Gtr 4
play twice
|-----------------------------------------------------------------------|
|-----------------------------------------------------------------------|
|---------11--11------------8--8------------9--9------------8--8--------|
|-9-11-13--------13---6-8-9------9-8-8-9-11------11-9-6-8-9------9-8----|
|-----------------------------------------------------------------------|
|-----------------------------------------------------------------------|


Both Gtrs
play 4 times, Gtr 3 Lead (to be added)
     PM      PM   PM        PM--|        PM--|
|----------------------------------------------------------|
|----------------------------------------------------------|
|---------------------------------4---4--------4---4---4---|
|---------------------------------4---4--------4---4---4---|
|-2----2--2--2-4----4--4-----------------------------6-----|
|-0--0-0--0--0-2--2-2--2--2-4-4-4--------4-4-4-------------|


Both Gtrs
                       PM-------------|
|------------------------------------------|
|------------------------------------------|
|------------------------------------------|
|------------------------------------------|
|-2----------4---------5--4-----7--5-------|
|-0----------2---------3--2--0--5--3--0----|


Both Gtrs
play 4 times
    PM  PM     PM  PM  PM
|---------------------------------------|
|---------------------------------------|
|---------------------------------------|
|---------------------------------------|
|-7---9---10-----7---9---10-9-7---------|
|---0---0----0-0---0---0--------10-7----|


Gtr 1
play 4 times
    PM  PM     PM  PM  PM
|---------------------------------------|
|---------------------------------------|
|---------------------------------------|
|---------------------------------------|
|-7---9---10-----7---9---10-9-7---------|
|---0---0----0-0---0---0--------10-7----|


Gtr 2
play 4 times
     PM   PM     PM   PM   PM
|----------------------------------------------|
|----------------------------------------------|
|----------------------------------------------|
|----------------------------------------------|
|-10---12---14-----10---12---14-12-10----------|
|----0----0----0-0----0----0----------14-10----|


Both Gtrs
play 
    PM  PM  PM|   PM  PM            PM  PM  PM|   PM  PM
|------------------------------------------------------------------|
|------------------------------------------------------------------|
|------------------------------------------------------------------|
|-----------------------------7S4-----------------------------7----|
|-2---4---5-----2---4---5S4---5S2-2---4---5-----2---4---5S4---5----|
|-0-0-2-0-3-0-0-0-0-2-0-3S2-0-----0-0-2-0-3-0-0-0-0-2-0-3S2-0------|


    PM  PM  PM|   PM  PM            PM  PM  PM--|
|--------------------------------------------------------------------|
|--------------------------------------------------------------------|
|--------------------------------------------------------------------|
|-----------------------------7S4------------------------------------|
|-2---4---5-----2---4---5S4---5S2-2---4---5-------8S7-8S7-8S7-5S7----|
|-0-0-2-0-3-0-0-0-0-2-0-3S2-0-----0-0-2-0-3-0-0-0-6S5-6S5-6S5-3S5----|


Both Gtrs
|------------------------------------|
|------------------------------------|
|------------------------------------|
|------------------------------------|
|-8S7-8S7-8S7-5S7-8S7-8S7-8S7-5S7----|
|-6S5-6S5-6S5-3S5-6S5-6S5-6S5-3S5----|


Gtr 3
|------------------------------------|
|------------------------------------|
|-7p5-7p5-7p5-3h5-7p5-7p5-7p5-3h5----|
|------------------------------------|
|------------------------------------|
|------------------------------------|


Gtr 4
|------------------------------------|
|-----------------6p5-6p5-6p5-3h5----|
|-7p5-7p5-7p5-3h5--------------------|
|------------------------------------|
|------------------------------------|
|------------------------------------|


Gtr 1
play 4 times
|----------------------------------------------------|
|----------------------------------------------------|
|-------------------6-8-9-------6-8-9----------------|
|-------------5-7-8-------5-7-8-------5-7-8----------|
|-------4-6-7-------------------------------4-6-7----|
|-3-5-6----------------------------------------------|


Gtr 2
play 4 times
|----------------------------------------------------------------|
|----------------------------------------------------------------|
|----------------------9-11-12---------9-11-12-------------------|
|--------------8-10-11---------8-10-11---------8-10-11-----------|
|-------7-9-10-----------------------------------------7-9-10----|
|-6-8-9----------------------------------------------------------|


Gtr 3
joins 3rd time, play twice
|---------------------------------------------------------------------------|
|---------------------------------------------------------------------------|
|---------------------------12-14-15----------12-14-15----------------------|
|------------------11-13-14----------11-13-14----------11-13-14-------------|
|---------10-12-13----------------------------------------------10-12-13----|
|-9-11-12-------------------------------------------------------------------|


Gtr 1
|---------------------------------------|
|---------------------------------------|
|-------7--6--------------5--4----------|
|----6--------5--------4--------3-------|
|-5--------------4--3--------------2----|
|---------------------------------------|


Gtr 2
|----------------------------------------|
|----------------------------------------|
|-------10--9--------------8--7----------|
|----9---------8--------7--------6-------|
|-8---------------7--6--------------5----|
|----------------------------------------|


Gtr 3
|------------------------------------------------|
|------------------------------------------------|
|---------13--12-----------------11--10----------|
|-----12----------11---------10----------9-------|
|-11------------------10--9-----------------8----|
|------------------------------------------------|


Both Gtrs
play twice
|----------------------------------------------------------------------------|
|----------------------------------------------------------------------------|
|----------------------------------------------------------------------------|
|----------------------------------------------------------------------------|
|-8-8-8-8-8-8---7-7-7-7-7-7---7-10-10-10-10-10-10---11-11-11-11-11-11--11----|
|-6-6-6-6-6-6---6-6-6-6-6-6---6--6--6--6--6--6--6----6--6--6--6--6--6---6----|


Both Gtrs
plays to fade
|-------------------------------------------------------------------------------|
|-------------------------------------------------------------------------------|
|-------------------------------------------------------------------------------|
|-------------------------------------------------------------------------------|
|-8-8-8-8-8-8--8-7-7-7-7-7-7---7-10-10-10-10-10-10--10-11-11-11-11-11-11--11----|
|-6-6-6-6-6-6--6-6-6-6-6-6-6---6--6--6--6--6--6--6---6--6--6--6--6--6--6---6----|


Gtr 3
plays to fade
   T      T      T      T     T     T     T     T      T      T      T      T      T      T      T
|--------------------------------------------------------------------------------------------------------|
|--------------------------------------------------------------------------------------------------------|
|-10-6p3-10-6p3-10-6p3-10-6p3-9-6p3-9-6p3-9-6p3-9-6p3-12-6p3-12-6p3-12-6p3-13-6p3-13-6p3-13-6p3-13-6p3---|
|--------------------------------------------------------------------------------------------------------|
|--------------------------------------------------------------------------------------------------------|
|--------------------------------------------------------------------------------------------------------|


Tablature Legend
----------------
 h   - hammer-on
 p   - pull-off
 b   - bend
 pb  - pre-bend
 r   - bend release (if no number after the r, then release immediately)
 /\  - slide into or out of (from/to "nowhere")
 s   - legato slide
 S   - shift slide
  - natural harmonic
[n]  - artificial harmonic
n(n) - tapped harmonic
 ~   - vibrato
 tr  - trill
 T   - tap
 TP  - trem. picking
 PM  - palm muting
\n/  - tremolo bar dip; n = amount to dip
 \n  - tremolo bar down
 n/  - tremolo bar up
/n\  - tremolo bar inverted dip
 =   - hold bend; also acts as connecting device for hammers/pulls
 <>  - volume swell (louder/softer)
 x   - on rhythm slash represents muted slash
 o   - on rhythm slash represents single note slash

Misc Legend
-----------
 |  - bar
||  - double bar
||o - repeat start
o|| - repeat end
*|  - double bar (ending)
 :  - bar (freetime)
 $  - Segno
 &  - Coda
Tempo markers -  = BPM(8/16=s8/s16), where s8 = swing 8ths, s16 = swing 16ths

Related for Schizos Are Never Alone tab