Song name
# A B C D E F G H I J K L M N O P Q R S T U V W X Y Z

Annihilator - Human Insecticide tab

Annihilator - Human Insecticide

tabbed by 
ol753_357lo@yahoo.co.uk

Tuning - drop 1/4 of a step

riff 1
  PM----------------------------------------------------|
|--------------------------------------------------------------|
|--------------------------------------------------------------|
|--------------------------------------------------------------|
|--------------------------------------------------------------|
|---------------------------------------------------------8----|
|-5-3-0-5-3-0-5-3-0-5-3-0-5-3-0-0-5-3-0-5-3-0-5-3-0-5-3-0-6----|

riff 2
  PM------------------------------------------------|
|-------------------------------------------------------------|
|-------------------------------------------------------------|
|-------------------------------------------------------------|
|-------------------------------------------------------------|
|-----------------------------------------------------8--8----|
|-5-3-0-5-3-0-5-3-0-5-3-0-5-3-0-0-5-3-0-5-3-0-5-3-0-0-6--6----|


Gtr 1
play riff 1
Gtr 2
play riff 2
Gtr 1
play riff 1
Gtr 2
play riff 2


Both Gtrs
play twice
  PM----------------------------------------------------|
|--------------------------------------------------------------|
|--------------------------------------------------------------|
|--------------------------------------------------------------|
|--------------------------------------------------------------|
|---------------------------------------------------------8----|
|-5-3-0-5-3-0-5-3-0-5-3-0-5-3-0-0-5-3-0-5-3-0-5-3-0-5-3-0-6----|


  PM------------------------------------------------|
|-------------------------------------------------------------|
|-------------------------------------------------------------|
|-------------------------------------------------------------|
|-------------------------------------------------------------|
|-----------------------------------------------------8--8----|
|-5-3-0-5-3-0-5-3-0-5-3-0-5-3-0-0-5-3-0-5-3-0-5-3-0-0-6--6----|


Both Gtrs
|------|
|------|
|------|
|-2----|
|-0----|
|------|


Both Gtrs
play twice
|---------------------------------------------------------------------------------------|
|---------------------------------------------------------------------------------------|
|---------------------------------------------------------------------------------------|
|-7-7-7-7-7-7-7-7-9-9-9-9-9-9-9-9-10-10-10-10-10-10-10-10-12-12-12-12-12-12-12-12-15----|
|-0-0-0-0-0-0-0-0-0-0-0-0-0-0-0-0--0--0--0--0--0--0--0--0--0--0--0--0--0--0--0--0--0----|
|---------------------------------------------------------------------------------------|


Gtr 1
play twice
|---------------------------------------------------------------------------------------|
|---------------------------------------------------------------------------------------|
|---------------------------------------------------------------------------------------|
|-7-7-7-7-7-7-7-7-9-9-9-9-9-9-9-9-10-10-10-10-10-10-10-10-12-12-12-12-12-12-12-12-15----|
|-0-0-0-0-0-0-0-0-0-0-0-0-0-0-0-0--0--0--0--0--0--0--0--0--0--0--0--0--0--0--0--0--0----|
|---------------------------------------------------------------------------------------|


Gtr 2
play twice
|------------------------------------------------------------------------------------------------------|
|------------------------------------------------------------------------------------------------------|
|------------------------------------------------------------------------------------------------------|
|-10-10-10-10-10-10-10-10-12-12-12-12-12-12-12-12-14-14-14-14-14-14-14-14-15-15-15-15-15-15-15-15-15---|
|--0--0--0--0--0--0--0--0--0--0--0--0--0--0--0--0--0--0--0--0--0--0--0--0--0--0--0--0--0--0--0--0--0---|
|------------------------------------------------------------------------------------------------------|


Both Gtrs
play twice
                                     PM--------------------|       PM------------------------|
|----------------------------------------------------------------------------------------------|
|----------------------------------------------------------------------------------------------|
|-0--------------------------------------------------------------------------------------------|
|-0---------------------------5---2--------------------------3--2------------------------------|
|-2---------------3-----2-----3---0--0-0-0-0-0-0-0-0-0-0-0-0-1--0--0-0-0-0-0-0-0-0-0-0-0-0-0-0-|
|-3---------------1-----0----------------------------------------------------------------------|


                             PM----------------|       PM----------------|
|----------------------------------------------------------------------------|
|-3--------------------------------------------------------------------------|
|-2--------------------------------------------------------------------------|
|-0------------10---10----2----------------------3--2------------------------|
|-0-------------8----7----0--0-0-0-0-0-0-0-0-0-0-1--0--0-0-0-0-0-0-0---------|
|--------------------------------------------------------------------\-------|


Verse
Both Gtrs
play 4 times
  PM--------------------|       PM--------------------|
|---------------------------------------------------------------|
|---------------------------------------------------------------|
|---------------------------------------------------------------|
|-------------------------7--8--------------------------7--5----|
|-5-3-0-5-3-0-5-3-0-5-3-0-5--6--5-3-0-5-3-0-5-3-0-5-3-0-5--3----|
|---------------------------------------------------------------|


     PM----------------------------------------------------------|
|--------------------------------------------------------------------|
|--------------------------------------------------------------------|
|--------------------------------------------------------------------|
|-2------------------------------------------------------------------|
|-0---0-0-0-0-0-0-0-0-0-0-0-0-0-0-0-0-0-0-0-0-0-0-0-0-0-0-0-0-0-0----|
|--------------------------------------------------------------------|


Chorus
Both Gtrs
play twice
                                     PM--------------------|       PM------------------------|
|----------------------------------------------------------------------------------------------|
|----------------------------------------------------------------------------------------------|
|-0--------------------------------------------------------------------------------------------|
|-0---------------------------5---2--------------------------3--2------------------------------|
|-2---------------3-----2-----3---0--0-0-0-0-0-0-0-0-0-0-0-0-1--0--0-0-0-0-0-0-0-0-0-0-0-0-0-0-|
|-3---------------1-----0----------------------------------------------------------------------|


                             PM----------------|       PM----------------|
|----------------------------------------------------------------------------|
|-3--------------------------------------------------------------------------|
|-2--------------------------------------------------------------------------|
|-0------------10---10----2----------------------3--2------------------------|
|-0-------------8----7----0--0-0-0-0-0-0-0-0-0-0-1--0--0-0-0-0-0-0-0---------|
|--------------------------------------------------------------------\-------|


Repeat Verse


Chorus
Both Gtrs
play twice
                                     PM--------------------|       PM------------------------|
|----------------------------------------------------------------------------------------------|
|----------------------------------------------------------------------------------------------|
|-0--------------------------------------------------------------------------------------------|
|-0---------------------------5---2--------------------------3--2------------------------------|
|-2---------------3-----2-----3---0--0-0-0-0-0-0-0-0-0-0-0-0-1--0--0-0-0-0-0-0-0-0-0-0-0-0-0-0-|
|-3---------------1-----0----------------------------------------------------------------------|


                             PM----------------|       PM----------------|
|----------------------------------------------------------------------------|
|-3--------------------------------------------------------------------------|
|-2--------------------------------------------------------------------------|
|-0------------10---10----2----------------------3--2------------------------|
|-0-------------8----7----0--0-0-0-0-0-0-0-0-0-0-1--0--0-0-0-0-0-0-0---------|
|--------------------------------------------------------------------\-------|


                                     PM--------------------|       PM------------------------|
|----------------------------------------------------------------------------------------------|
|----------------------------------------------------------------------------------------------|
|-0--------------------------------------------------------------------------------------------|
|-0---------------------------5---2--------------------------3--2------------------------------|
|-2---------------3-----2-----3---0--0-0-0-0-0-0-0-0-0-0-0-0-1--0--0-0-0-0-0-0-0-0-0-0-0-0-0-0-|
|-3---------------1-----0----------------------------------------------------------------------|


                             PM----------------|       
|---------------------------------------------------|
|-3-------------------------------------------------|
|-2-------------------------------------------------|
|-0------------10---10----2----------------------3--|
|-0-------------8----7----0--0-0-0-0-0-0-0-0-0-0-1--|
|---------------------------------------------------|


Both Gtrs
|----------|
|----------|
|----------|
|----------|
|----------|
|-3b5r===4-|


Both Gtrs
play twice
  PM----|         PM----|         PM----|
|-------------------------------------------------------------------|
|-------------------------------------------------------------------|
|-------------------------------------------------------------------|
|---------7S9-9-9---------5S7-7-7---------4S5-5-5-------------------|
|---------5S7-7-7---------3S5-5-5---------2S3-3-3----------2-3-5----|
|-0-0-0-0---------0-0-0-0---------0-0-0-0----------0-2-3-5----------|


  PM----|         PM----|         PM----|
|-------------------------------------------------------------------|
|-------------------------------------------------------------------|
|-------------------------------------------------------------------|
|---------7S9-9-9---------5S7-7-7---------4S5-5-5----------2-3-5----|
|---------5S7-7-7---------3S5-5-5---------2S3-3-3--0-2-3-5----------|
|-0-0-0-0---------0-0-0-0---------0-0-0-0---------------------------|


Both Gtrs
play twice
  PM---|          PM|           PM
|-----------------------------------------------------------|
|-----------------------------------------------------------|
|-----------------------------------------------------------|
|--------7S9-9-9------5S7-7-7-----4S5-5-5-------------------|
|--------5S7-7-7------3S5-5-5-----2S3-3-3----------2-3-5----|
|-0--0-0----------0-0-----------0----------0-2-3-5----------|


  PM----|          PM|           PM
|------------------------------------------------------------|
|------------------------------------------------------------|
|------------------------------------------------------------|
|---------7S9-9-9------5S7-7-7-----4S5-5-5----------2-3-5----|
|---------5S7-7-7------3S5-5-5-----2S3-3-3--0-2-3-5----------|
|-0-0-0-0----------0-0-----------0---------------------------|


Both Gtrs
|------|
|------|
|------|
|------|
|-2----|
|-0----|


Gtr 3 (you let me know if you know how the hell jeff does that without a whammy bar)


Both Gtrs
play twice
  PM----|         PM----|         PM----|
|-------------------------------------------------------------------|
|-------------------------------------------------------------------|
|-------------------------------------------------------------------|
|---------7S9-9-9---------5S7-7-7---------4S5-5-5-------------------|
|---------5S7-7-7---------3S5-5-5---------2S3-3-3----------2-3-5----|
|-0-0-0-0---------0-0-0-0---------0-0-0-0----------0-2-3-5----------|


  PM----|         PM----|         PM----|
|-------------------------------------------------------------------|
|-------------------------------------------------------------------|
|-------------------------------------------------------------------|
|---------7S9-9-9---------5S7-7-7---------4S5-5-5----------2-3-5----|
|---------5S7-7-7---------3S5-5-5---------2S3-3-3--0-2-3-5----------|
|-0-0-0-0---------0-0-0-0---------0-0-0-0---------------------------|


Both Gtrs
|------|
|------|
|------|
|------|
|-2----|
|-0----|


Gtr 3 (see above)


Both Gtrs
|-20\---|
|-19\---|
|-------|
|-------|
|-------|
|-------|


Gtr 1
  PM----|             PM----|             PM----|             PM----|
|------------------------------------------------------------------------------|
|------------------------------------------------------------------------------|
|------------------------------------------------------------------------------|
|------------------------------------------------------------------------------|
|---------------------------------------------------------------------2-3-5----|
|-0-0-0-0-10S12-12-12-0-0-0-0--8S10-10-10-0-0-0-0-7S=8--8--8--0-2-3-5----------|

  PM----|             PM----|             PM----|             PM----|
|------------------------------------------------------------------------------|
|------------------------------------------------------------------------------|
|------------------------------------------------------------------------------|
|---------------------------------------------------------------------2-3-5----|
|-------------------------------------------------------------0-2-3-5----------|
|-0-0-0-0-10S12-12-12-0-0-0-0--8S10-10-10-0-0-0-0-7S=8--8--8-------------------|


Gtr 2
  PM----|             PM----|             PM----|
|-------------------------------------------------------------------------------|
|-------------------------------------------------------------------------------|
|-------------------------------------------------------------------------------|
|-------------------------------------------------------------------------------|
|------------------------------------------------------------------------2-3-5--|
|-0-0-0-0-14S15-15-15-0-0-0-0-12S14-14-14-0-0-0-0-10S12-12-12----0-2-3-5--------|

  PM----|             PM----|             PM----|
|-------------------------------------------------------------------------------|
|-------------------------------------------------------------------------------|
|-------------------------------------------------------------------------------|
|------------------------------------------------------------------------2-3-5--|
|----------------------------------------------------------------0-2-3-5--------|
|-0-0-0-0-14S15-15-15-0-0-0-0-12S14-14-14-0-0-0-0-10S12-12-12-------------------|


Both Gtrs
|------|
|------|
|------|
|------|
|-2----|
|-0----|


Gtr 1
play riff 1
Gtr 2
play riff 2


Both Gtrs
  PM----------------------------------------------------|
|--------------------------------------------------------------|
|--------------------------------------------------------------|
|--------------------------------------------------------------|
|--------------------------------------------------------------|
|---------------------------------------------------------8----|
|-5-3-0-5-3-0-5-3-0-5-3-0-5-3-0-0-5-3-0-5-3-0-5-3-0-5-3-0-6----|


  PM------------------------------------------------|
|-------------------------------------------------------------|
|-------------------------------------------------------------|
|-------------------------------------------------------------|
|-------------------------------------------------------------|
|-----------------------------------------------------8--8----|
|-5-3-0-5-3-0-5-3-0-5-3-0-5-3-0-0-5-3-0-5-3-0-5-3-0-0-6--6----|


Both Gtrs
|------|
|------|
|------|
|-2----|
|-0----|
|------|


Repeat Verse


Chorus
Both Gtrs
                                     PM--------------------|       PM------------------------|
|----------------------------------------------------------------------------------------------|
|----------------------------------------------------------------------------------------------|
|-0--------------------------------------------------------------------------------------------|
|-0---------------------------5---2--------------------------3--2------------------------------|
|-2---------------3-----2-----3---0--0-0-0-0-0-0-0-0-0-0-0-0-1--0--0-0-0-0-0-0-0-0-0-0-0-0-0-0-|
|-3---------------1-----0----------------------------------------------------------------------|


                             PM----------------|       PM----------------|
|----------------------------------------------------------------------------|
|-3--------------------------------------------------------------------------|
|-2--------------------------------------------------------------------------|
|-0------------10---10----2----------------------3--2------------------------|
|-0-------------8----7----0--0-0-0-0-0-0-0-0-0-0-1--0--0-0-0-0-0-0-0---------|
|--------------------------------------------------------------------\-------|


                                     PM--------------------|       PM------------------------|
|----------------------------------------------------------------------------------------------|
|----------------------------------------------------------------------------------------------|
|-0--------------------------------------------------------------------------------------------|
|-0---------------------------5---2--------------------------3--2------------------------------|
|-2---------------3-----2-----3---0--0-0-0-0-0-0-0-0-0-0-0-0-1--0--0-0-0-0-0-0-0-0-0-0-0-0-0-0-|
|-3---------------1-----0----------------------------------------------------------------------|


|-----------------------|
|-3---------------------|
|-2---------------------|
|-0------------10---10--|
|-0-------------8----7--|
|-----------------------|


Both Gtrs
play 4 times
     PM--------------------|       PM--------------------|
|---------------------------------------------------------------|
|---------------------------------------------------------------|
|---------------------------------------------------------------|
|-2--------------------------3--2--------------------------3----|
|-0--0-0-0-0-0-0-0-0-0-0-0-0-1--0--0-0-0-0-0-0-0-0-0-0-0-0-1----|
|---------------------------------------------------------------|


Gtr 1, Gtr 2 accentuates parts
     PM--------------------|       PM--------------------|
|---------------------------------------------------------------|
|---------------------------------------------------------------|
|---------------------------------------------------------------|
|-2--------------------------3--2--------------------------3----|
|-0--0-0-0-0-0-0-0-0-0-0-0-0-1--0--0-0-0-0-0-0-0-0-0-0-0-0-1----|
|---------------------------------------------------------------|


*hold
     PM--------------------|       PM--------------------|
|---------------------------------------------------------------|
|---------------------------------------------------------------|
|---------------------------------------------------------------|
|-2--------------------------3--2--------------------------3----|
|-0--0-0-0-0-0-0-0-0-0-0-0-0-1--0--0-0-0-0-0-0-0-0-0-0-0-0-1*---|
|---------------------------------------------------------------|


Both Gtrs
|------|
|------|
|------|
|-2----|
|-0----|
|------|


Tablature Legend
----------------
 h   - hammer-on
 p   - pull-off
 b   - bend
 pb  - pre-bend
 r   - bend release (if no number after the r, then release immediately)
 /\  - slide into or out of (from/to "nowhere")
 s   - legato slide
 S   - shift slide
  - natural harmonic
[n]  - artificial harmonic
n(n) - tapped harmonic
 ~   - vibrato
 tr  - trill
 T   - tap
 TP  - trem. picking
 PM  - palm muting
\n/  - tremolo bar dip; n = amount to dip
 \n  - tremolo bar down
 n/  - tremolo bar up
/n\  - tremolo bar inverted dip
 =   - hold bend; also acts as connecting device for hammers/pulls
 <>  - volume swell (louder/softer)
 x   - on rhythm slash represents muted slash
 o   - on rhythm slash represents single note slash

Misc Legend
-----------
 |  - bar
||  - double bar
||o - repeat start
o|| - repeat end
*|  - double bar (ending)
 :  - bar (freetime)
 $  - Segno
 &  - Coda
Tempo markers -  = BPM(8/16=s8/s16), where s8 = swing 8ths, s16 = swing 16ths

Tap to rate this tab
# A B C D E F G H I J K L M N O P Q R S T U V W X Y Z