Song name
# A B C D E F G H I J K L M N O P Q R S T U V W X Y Z

Annihilator - Stonewall tab

#----------------------------------PLEASE NOTE---------------------------------#
#This file is the author's own work and represents their interpretation of the #
#song. You may only use this file for private study, scholarship, or research. #
#------------------------------------------------------------------------------#

STONEWALL
As recorded by Annihilator
(From the 1990 Album NEVER, NEVERLAND)

Transcribed by Momy
	

Words and Music by Annihilator
Arranged by Annihilator

Em
0 2 5 x x x
	
Bm7
7 9 7 7 x x
	
Bm7+5
7 10 7 7 x x
	
F/A
x 0 3 x x x

Gtr I (E A D G B E) - 'Untitled'
Gtr II (E A D G B E) - 'Untitled'
Gtr III (E A D G B E) - 'Untitled'

 Intro
  Q=175
                  G5
 4/4
  Gtrs I, II
          PM--|          PM|    PM--|
  H.      S S E    Q   E E E  E S S E
|---------------|---------------------|
|---------------|---------------------|
|---------------|---------------------|
|---------------|-12--12-----12-------|
|---------------|-10--10-----10-------|
|---------0-0-0-|--------0-0----0-0-0-|


  F#5                   C5
         PM|    PM--|        PM|   PM|        PM|
   Q   E E E  E S S E   Q  E E E E E E   Q  E E E E E E
|---------------------|----------------|------------------|
|---------------------|----------------|------------------|
|---------------------|----------------|------------------|
|-11--11-----11-------|-5--5-----5-----|-5--5-------------|
|--9---9------9-------|-3--3-----3-----|-3--3-----3-0-----|
|--------0-0----0-0-0-|------0-0---0-0-|------0-0-----0---|


  G5                    F#5
         PM|    PM--|          PM|    PM--|
   Q   E E E  E S S E    Q   E E E  E S S E
|---------------------|---------------------|
|---------------------|---------------------|
|---------------------|---------------------|
|-12--12-----12-------|-11--11-----11-------|
|-10--10-----10-------|--9---9------9-------|
|--------0-0----0-0-0-|--------0-0----0-0-0-|


  C5                      G5  D5
       PM|   PM|        PM
  Q  E E E E E E   Q  E E E E E E
|----------------|------------------|
|----------------|------------------|
|----------------|------------------|
|-5--5-----5-----|-5--5-------7-----|
|-3--3-----3-----|-3--3---5---5-----|
|------0-0---0-0-|------0-3---------|


  G5                    F#5
         PM|    PM--|          PM|    PM--|
   Q   E E E  E S S E    Q   E E E  E S S E
|---------------------|---------------------|
|---------------------|---------------------|
|---------------------|---------------------|
|-12--12-----12-------|-11--11-----11-------|
|-10--10-----10-------|--9---9------9-------|
|--------0-0----0-0-0-|--------0-0----0-0-0-|


  C5
       PM|   PM|
  Q  E E E E E E   Q  E E E E E E
|----------------|------------------|
|----------------|------------------|
|----------------|------------------|
|-5--5-----5-----|-5----------------|
|-3--3-----3-----|-3--3-0---3-0-----|
|------0-0---0-0-|--------0-----0---|


  G5                    F#5
         PM|    PM--|          PM|    PM--|
   Q   E E E  E S S E    Q   E E E  E S S E
|---------------------|---------------------|
|---------------------|---------------------|
|---------------------|---------------------|
|-12--12-----12-------|-11--11-----11-------|
|-10--10-----10-------|--9---9------9-------|
|--------0-0----0-0-0-|--------0-0----0-0-0-|


  C5                      G5  D5
       PM|   PM|        PM
  Q  E E E E E E   Q  E E E E E E
|----------------|------------------|
|----------------|------------------|
|----------------|------------------|
|-5--5-----5-----|-5--5-------7-----|
|-3--3-----3-----|-3--3---5---5-----|
|------0-0---0-0-|------0-3---------|


                                         Chorus
  N.C.(Am)            N.C.                E5    G#A5BbB5    E5    G#A5C#D5
  Gtr I
                                PM------------|         PM------|         PM
  S S E E E E E E E   E E E E E E E E     E E E E E E E E   E E E E E E E E
|-------------------|-----------------||------------------|------------------|
|-------------------|-----------------||o-----------------|------------------|
|-9-9-9-7-5-------5-|-----------------||------------------|------------------|
|-----------9-7-9---|-----------------||------------------|-----------6-7----|
|-------------------|-7-6-5-----------||o-2-----6-7-8-9---|-2-----6-7-4-5----|
|-------------------|-------7-6-5-3-5-||--0-0-0-4-5-6-7-3-|-0-0-0-4-5-----0--|
|
| Gtr II
|                               PM------------|         PM------|         PM
| S S E E E E E E E   E E E E E E E E     E E E E E E E E   E E E E E E E E
|-------------------|-----------------||------------------|------------------|
|-------------------|-----------------||o-----------------|------------------|
|-5-5-5-4-----------|-----------------||------------------|------------------|
|---------7-5-4-5-7-|-----------------||------------------|-----------6-7----|
|-------------------|-7-6-5-----------||o-2-----6-7-8-9---|-2-----6-7-4-5----|
|-------------------|-------7-6-5-3-5-||--0-0-0-4-5-6-7-3-|-0-0-0-4-5-----0--|


  E5                    D5      A5          G#A5BbB5    E5    G#A5C#D5
  Gtrs I, II
  PM--|       PM------|     PM|       PM--|         PM------|         PM
  E E E E E E E E   E E E E E E E E   E E E E E E E E   E E E E E E E E
|-----------------|-----------------|-----------------|------------------|
|-----------------|-----3-3---------|-----------------|------------------|
|-----------------|-----2-2---------|-----------------|------------------|
|-----------------|-----0-0-----2-2-|-----------------|-----------6-7----|
|-2-----2-1-0-----|-----0-0-----0-0-|-2-----6-7-8-9---|-2-----6-7-4-5----|
|-0-0-0-------3-0-|-0-0-----0-0-----|-0-0-0-4-5-6-7-3-|-0-0-0-4-5-----0--|


                                          Interlude
  E5                D5                      N.C.(Em)         N.C.(Am)
                                           Gtr III
  PM--|       PM|          PM  PM
  E E E E E E E E   Q  E E E E E E          E E E E E E Q    E E E E E E Q
|-----------------|-----------------||-||---------------0--|----------------|
|-----------------|-3--------------o||-||o------0-----0----|---------0------|
|-----------------|-2---------------||-||-----0-----0------|-----5-----5----|
|-----------------|-0---------------||-||---2-----4--------|---7---7-----7--|
|-2-----2-1-0-----|-0--0-2---5---5-o||-||o-----------------|-0--------------|
|-0-0-0-------3-0-|--------3---2----||-||------------------|----------------|


                                           Verse 1
                   N.C.(D)                  E5    Em          F#5   F#
                                            Gtrs I, II
                                              PM|   PM  PM|     PM|   PM  PM|
  E E E E E E Q    E E E E S S E Q          E E E E E E E E   E E E E E E E E
|----------------|-----2---0h2p0-----||-||------------------|-----------------|
|----------------|-------3-------3--o||-||o-----------------|-----------------|
|-----0-----0----|---2---------------||-||------------------|-----------------|
|---2-----0------|-0-----------------||-||--------5---5-----|-----------------|
|-0-----2-----3--|------------------o||-||o-2-----2---2-----|-4-----1---1-----|
|----------------|-------------------||-||--0-0-0-0-0-0-0-0-|-2-0-0-2-0-2-0-0-|


                                       Pre-Chorus
                                        $
  E5    Em          F#5   F#            Bm7             Bm7+5
    PM|   PM  PM|     PM|   PM--|         PM|              PM|
  E E E E E E E E   E E E E E E E E     E E E Q.   Q     E E E  Q   +Q.
|-----------------|------------------||---------------|-------------------|
|-----------------|-----------------o||---------------|-------------------|
|-----------------|---------------0--||-7-----7----7--|--7------7---(7)---|
|-------5---5-----|------------------||-7-----7----7--|--7------7---(7)---|
|-2-----2---2-----|-4-----1-----1---o||---------------|-10-----10--(10)---|
|-0-0-0-0-0-0-0-0-|-2-0-0-2-0-2------||---7-7---------|--7-7-7--7---(7)---|


  F#m             Em              Bm7
    PM|             PM|             PM|
  E E E Q.   Q    E E E Q.   Q    E E E Q.   Q
|---------------|---------------|---------------|
|---------------|---------------|---------------|
|-2-----2----2--|-0-----0----0--|-7-----7----7--|
|-2-----2----2--|-0-----0----0--|-7-----7----7--|
|---------------|---------------|---------------|
|---2-2---------|---0-0---------|---7-7---------|


  Bm7+5               F#m             Em       BbA5G5
     PM|                PM|             PM|
   E E E  Q   +Q.     E E E Q.   Q    E E E Q  E E E
|-------------------|---------------|----------------|
|-------------------|---------------|----------------|
|--7------7---(7)---|-2-----2----2--|-0-----0--------|
|--7------7---(7)---|-2-----2----2--|-0-----0--------|
|-10-----10--(10)---|---------------|----------8-7-5-|
|--7-7-7--7---(7)---|---2-2---------|---0-0----6-5-3-|


 Chorus
  E5    G#A5BbB5    E5    G#A5C#D5    E5                    D5      A5
  PM--|         PM------|         PM------|       PM------|     PM|
  E E E E E E E E   E E E E E E E E   E E E E E E E E   E E E E E E E E
|-----------------|-----------------|-----------------|------------------|
|-----------------|-----------------|-----------------|-----3-3----------|
|-----------------|-----------------|-----------------|-----2-2----------|
|-----------------|-----------6-7---|-----------------|-----0-0-----2-2--|
|-2-----6-7-8-9---|-2-----6-7-4-5---|-2-----2-1-0-----|-----0-0-----0-0--|
|-0-0-0-4-5-6-7-3-|-0-0-0-4-5-----0-|-0-0-0-------3-0-|-0-0-----0-0------|


                                                              To Coda
  E5    G#A5BbB5    E5    G#A5C#D5    E5                D5
  PM--|         PM------|         PM------|       PM|          PM  PM
  E E E E E E E E   E E E E E E E E   E E E E E E E E   Q  E E E E E E
|-----------------|-----------------|-----------------|-----------------|
|-----------------|-----------------|-----------------|-3---------------|
|-----------------|-----------------|-----------------|-2---------------|
|-----------------|-----------6-7---|-----------------|-0---------------|
|-2-----6-7-8-9---|-2-----6-7-4-5---|-2-----2-1-0-----|-0--0-2---5---5--|
|-0-0-0-4-5-6-7-3-|-0-0-0-4-5-----0-|-0-0-0-------3-0-|--------3---2----|


 Verse 2
  E5    Em          F#5   F#          E5    Em          F#5   F#
    PM|   PM  PM|     PM|   PM  PM|     PM|   PM  PM|     PM|   PM--|
  E E E E E E E E   E E E E E E E E   E E E E E E E E   E E E E E E E E
|-----------------|-----------------|-----------------|------------------|
|-----------------|-----------------|-----------------|------------------|
|-----------------|-----------------|-----------------|---------------0--|
|-------5---5-----|-----------------|-------5---5-----|------------------|
|-2-----2---2-----|-4-----1---1-----|-2-----2---2-----|-4-----1-----1----|
|-0-0-0-0-0-0-0-0-|-2-0-0-2-0-2-0-0-|-0-0-0-0-0-0-0-0-|-2-0-0-2-0-2------|


                                                            D.S. al Coda
  E5    Em          F#5   F#          E5    Em          F#5   F#
    PM|   PM  PM|     PM|   PM  PM|     PM|   PM  PM|     PM|   PM--|
  E E E E E E E E   E E E E E E E E   E E E E E E E E   E E E E E E E E
|-----------------|-----------------|-----------------|------------------|
|-----------------|-----------------|-----------------|------------------|
|-----------------|-----------------|-----------------|---------------0--|
|-------5---5-----|-----------------|-------5---5-----|------------------|
|-2-----2---2-----|-4-----1---1-----|-2-----2---2-----|-4-----1-----1----|
|-0-0-0-0-0-0-0-0-|-2-0-0-2-0-2-0-0-|-0-0-0-0-0-0-0-0-|-2-0-0-2-0-2------|


    &
    N.C.(Em)         N.C.(Am)                          N.C.(D)
   4/4
    Gtr III
    E E E E E E Q    E E E E E E Q    E E E E E E Q    E   E E E S S E Q
||--------------0--|----------------|----------------|-------2---0h2p0--------||
||o-----0-----0----|---------0------|----------------|---------3-------3-----o||
||----0-----0------|-----5-----5----|-----0-----0----|-----2------------------||
||--2-----4--------|---7---7-----7--|---2-----0------|-0----------------------||
||o----------------|-0--------------|-0-----2-----3--|-----------------------o||
||-----------------|----------------|----------------|------------------------||
|
|   Gtrs I, II
|   W                W                W                H..                E
||-----------------|----------------|----------------|------------------------||
||o----------------|----------------|----------------|-----------------------o||
||-----------------|----------------|----------------|------------------------||
||-----------------|----------------|----------------|------------------------||
||o----------------|----------------|----------------|-----------------------o||
||-----------------|----------------|----------------|-------------------12\--||


 Breakdown
  Slower Q=80
  E5                 F#5   B5Bb5
 1/4    4/4
  Gtrs I, II
  S E.   H.      +S  E S   S H    +Q..
|------|-----------------|---------------|
|------|-----------------|---------------|
|------|-----------------|---------------|
|------|-----------------|-4-3----(3)----|
|-2----|-2-------(2)-4-2-|-2-1----(1)----|
|-0----|-0-------(0)-2-0-|---------------|


  C5          D5  C5  G5F#5                E5                 F#E5
                                          1/4    4/4
  H.      +S  S S S   S E +E. S Q.    E.   S E.   H.      +S  E S
|-------------------|--------------------|------|-----------------|
|-------------------|--------------------|------|-----------------|
|-------------------|-7-6-(6)------------|------|-----------------|
|-5-------(5)-7---5-|-5-4-(4)------------|------|-----------------|
|-3-------(3)-5---3-|---------4-4--------|-2----|-2-------(2)-4-2-|
|-------------------|---------2-2----12\-|-0----|-0-------(0)-2-0-|


  B5Bb5                  C5          D5  C5  G5F#5
  S Q.   E S S S S E S   H.      +S  S S S   S E +E. S S H
|----------------------|-------------------|------------------|
|----------------------|-------------------|------------------|
|----------------------|-------------------|-7-6-(6)----------|
|-4-3----3-3-3-3-3-3---|-5-------(5)-7---5-|-5-4-(4)----------|
|-2-1----1-1-1-1-1-1---|-3-------(3)-5---3-|---------4-4------|
|----------------------|-------------------|---------2-2------|


  Q=175
  Bm7                  Bm7+5
  Gtr I
                        ~~~~~~~
   W                    W
|--------------------|-----------------------|
|-10b12--------------|-10pb12r===============|
|--------------------|-----------------------|
|--------------------|-----------------------|
|--------------------|-----------------------|
|--------------------|-----------------------|
|
| Gtr II
|       PM|                   PM|
|  E    E E Q  +Q.      E     E E  Q   +Q.
|--------------------|-----------------------|
|--------------------|-----------------------|
|--7--------7--(7)---|--7----------7---(7)---|
|--7--------7--(7)---|--7----------7---(7)---|
|--------------------|-10---------10--(10)---|
|-------7-7----------|--7-----7-7--7---(7)---|


  F#m
                                   |-3-|
  S S S  S S  S S  S S  S S S  S   S S S S
|-7h9p7----7-------------------------------|
|-------10---10-7----7h10p7----7-----------|
|------------------9--------9-----10p9p7---|
|----------------------------------------9-|
|------------------------------------------|
|------------------------------------------|
|
|     PM---|
| E   E    E    Q.            +Q
|------------------------------------------|
|------------------------------------------|
|-2-------------2-------------(2)----------|
|-2-------------2-------------(2)----------|
|------------------------------------------|
|-----2----2-------------------------------|


  Em
  S S S S S S S  S S S S S  Q
|-------------------------------|
|-------------------------------|
|-9-7-----7--------9-7----------|
|-----9-7---9-7--------9----9---|
|----------------9-------9------|
|-------------------------------|
|
|     PM--|
| E   E   E   Q.           +Q
|-------------------------------|
|-------------------------------|
|-0-----------0------------(0)--|
|-0-----------0------------(0)--|
|-------------------------------|
|-----0---0---------------------|


  Bm7                    Bm7+5
                                 /1.5\
          PM   PM    PM
  +E  E E E  E E  E  E    E E E  Q.          S S S S
|----------------------|------------------------------|
|----------------------|------------------------------|
|-------7----6----7----|--9---7--6-----------6h7p6----|
|-(9)------------------|---------------------------7--|
|-----9---7----9-----9-|----9-------------------------|
|----------------------|------------------------------|
|
|     PM|                   PM|
|  E  E E Q.     +Q       E E E  Q       +Q.
|----------------------|------------------------------|
|----------------------|------------------------------|
|--7------7------(7)---|--7------7-------(7)----------|
|--7------7------(7)---|--7------7-------(7)----------|
|----------------------|-10-----10------(10)----------|
|-----7-7--------------|--7-7-7--7-------(7)----------|


  F#m                       G5          A5
                                         ~~
  H         S  S  Q.         E  E  E  E  H
|-------------------------|---------------------|
|-------------------------|-14-14-14-15-15------|
|----------------14-------|-14-14-14-16-16------|
|-9--------11-12-11-------|---------------------|
|-------------------------|---------------------|
|-------------------------|---------------------|
|
|   PM|
| E E E Q.           +Q      E  E  Q     E E Q
|-------------------------|---------------------|
|-------------------------|---------------------|
|-2-----2------------(2)--|--0--0--------2-2----|
|-2-----2------------(2)--|--0--0--------2-2----|
|-------------------------|--2--2--------0-0----|
|---2-2-------------------|--3--3---------------|


  Bm7
   S  S  S  S  S  S  S   S  S  S  S  S  S   S  S  S
|-12-14-12----12-----------12-14-12----12-----------|
|----------15----15-14--12----------15-----15-14-12-|
|---------------------------------------------------|
|---------------------------------------------------|
|---------------------------------------------------|
|---------------------------------------------------|
|
|        PM---|
|  E     E     E     Q.                +Q
|---------------------------------------------------|
|---------------------------------------------------|
|--7-----------------7-----------------(7)----------|
|--7-----------------7-----------------(7)----------|
|---------------------------------------------------|
|--------7-----7------------------------------------|


  Bm7+5
   S  S  S  S  S  S  S  S  S  S   S   S  S  S  S  S
|-12-14-12----12----------12-14--12-----12----------|
|----------15----15-14-12------------15----15-14-12-|
|---------------------------------------------------|
|---------------------------------------------------|
|---------------------------------------------------|
|---------------------------------------------------|
|
|        PM---|
|  E     E     E     Q           +Q.
|---------------------------------------------------|
|---------------------------------------------------|
|--7-----------------7-----------(7)----------------|
|--7-----------------7-----------(7)----------------|
|-10----------------10----------(10)----------------|
|--7-----7-----7-----7-----------(7)----------------|


  F#m
            |---3---|
   S  S  S  S  S    S  S  S   S  S  S  S  S  S   S  S  T  T
|-15-14-12---------------12--14-15-14-17-15-14-----15-14-15-|
|----------15-14---12-15------------------------17----------|
|-----------------------------------------------------------|
|-----------------------------------------------------------|
|-----------------------------------------------------------|
|-----------------------------------------------------------|
|
|        PM------|
|  E     E       E        Q.                +Q
|-----------------------------------------------------------|
|-----------------------------------------------------------|
|--2----------------------2-----------------(2)-------------|
|--2----------------------2-----------------(2)-------------|
|-----------------------------------------------------------|
|--------2-------2------------------------------------------|


  Em                                  Bm7
                            ~~                              ~~
   S  S  S  S  S  S  S   S  H          E  E  E  H           E
|-14----------14--------------------|-19----17-17b19----------|
|----17-15-14----17-15--14----------|-------------------------|
|--------------------------16-------|----16----------------16-|
|-----------------------------------|-------------------------|
|-----------------------------------|-------------------------|
|-----------------------------------|-------------------------|
|
|        PM---|                           PM|
|  E     E     E     Q.        +Q      E  E  E  Q.     +Q
|-----------------------------------|-------------------------|
|-----------------------------------|-------------------------|
|--0-----------------0---------(0)--|--7--------7------(7)----|
|--0-----------------0---------(0)--|--7--------7------(7)----|
|-----------------------------------|-------------------------|
|--------0-----0--------------------|-----7--7----------------|


  Bm7+5                     F#m
                       ~~
   E  E  E  E  E   E   Q     E  E  E  E   E  E  E   E
|-------------------------|-------17-----------14--15-|
|-19----17----14------14--|-14-15----15--14-----------|
|----16----14-----11------|-----------------16--------|
|-------------------------|---------------------------|
|-------------------------|---------------------------|
|-------------------------|---------------------------|
|
|     PM|                       PM|
|  E  E  E  Q     +Q.        E  E  E  Q.       +Q
|-------------------------|---------------------------|
|-------------------------|---------------------------|
|--7--------7-----(7)-----|--2--------2--------(2)----|
|--7--------7-----(7)-----|--2--------2--------(2)----|
|-10-------10----(10)-----|---------------------------|
|--7--7--7--7-----(7)-----|-----2--2------------------|


                             Bridge
  G5            A5            Gm                  C5Bb5    F/A
                    \1
                                PM|   PM--------|
   +E   E  E  Q    +Q.        E E E E E E E E   E E Q  E E Q   4x
|-(15)--------------------||------------------|----------------||
|------14-15-14---(14)----||o-----------------|---------------o||
|-------------------------||--3-----3---------|----------------||
|-------------------------||--3-----3---------|---5-3--3---3---||
|-------------------------||o-----------------|---3-1--1p0-0--o||
|-------------------------||----3-3---3-3-3-3-|-3--------------||
|
|                               PM|   PM--------|
|   E   E  Q    E   E  Q      E E E E E E E E   E E Q  E E Q   4x
|-------------------------||------------------|----------------||
|-------------------------||o-----------------|---------------o||
|---0---0-------2---2-----||--3-----3---------|----------------||
|---0---0-------2---2-----||--3-----3---------|---5-3--3---3---||
|---2---2-------0---0-----||o-----------------|---3-1--1p0-0--o||
|---3---3-----------------||----3-3---3-3-3-3-|-3--------------||


    Gm                  C5Bb5    F/A
    Gtrs I, II
      PM|   PM|   PM--|
    E E E E E E E E   E E Q  E E Q   3x
||------------------|----------------||
||o-----------------|---------------o||
||--3-----3-----3---|----------------||
||--3-----3-----3---|---5-3--3---3---||
||o-----------------|---3-1--1p0-0--o||
||----3-3---3-3---3-|-3--------------||


  Gm                N.C.(Em)
    PM|   PM|   PM
                    |-3-| |-3-| |-3-|
  E E E E E E E E   E E E E E E E E E Q
|-----------------|----------------------|
|-----------------|----------------------|
|-3-----3-----3---|----------------------|
|-3-----3-----3---|-------------------9--|
|-----------------|-------------------7--|
|---3-3---3-3---3-|-3-0-0-3-0-0-3-0-0----|


   Verse 3
    E5    Em          F#5   F#          E5    Em          F#5   F#
   4/4
      PM|   PM  PM|     PM|   PM  PM|     PM|   PM  PM|     PM|   PM--|
    E E E E E E E E   E E E E E E E E   E E E E E E E E   E E E E E E E E
||------------------|-----------------|-----------------|-------------------||
||o-----------------|-----------------|-----------------|------------------o||
||------------------|-----------------|-----------------|---------------0---||
||--------5---5-----|-----------------|-------5---5-----|-------------------||
||o-2-----2---2-----|-4-----1---1-----|-2-----2---2-----|-4-----1-----1----o||
||--0-0-0-0-0-0-0-0-|-2-0-0-2-0-2-0-0-|-0-0-0-0-0-0-0-0-|-2-0-0-2-0-2-------||


 Pre-Chorus
  Bm7             Bm7+5               F#m             Em
    PM|              PM|                PM|             PM|
  E E E Q.   Q     E E E  Q   +Q.     E E E Q.   Q    E E E Q.   Q
|---------------|-------------------|---------------|---------------|
|---------------|-------------------|---------------|---------------|
|-7-----7----7--|--7------7---(7)---|-2-----2----2--|-0-----0----0--|
|-7-----7----7--|--7------7---(7)---|-2-----2----2--|-0-----0----0--|
|---------------|-10-----10--(10)---|---------------|---------------|
|---7-7---------|--7-7-7--7---(7)---|---2-2---------|---0-0---------|


  Bm7             Bm7+5               F#m             Em       BbA5G5
    PM|              PM|                PM|             PM|
  E E E Q.   Q     E E E  Q   +Q.     E E E Q.   Q    E E E Q  E E E
|---------------|-------------------|---------------|----------------|
|---------------|-------------------|---------------|----------------|
|-7-----7----7--|--7------7---(7)---|-2-----2----2--|-0-----0--------|
|-7-----7----7--|--7------7---(7)---|-2-----2----2--|-0-----0--------|
|---------------|-10-----10--(10)---|---------------|----------8-7-5-|
|---7-7---------|--7-7-7--7---(7)---|---2-2---------|---0-0----6-5-3-|


   Chorus
    E5    G#A5BbB5    E5    G#A5C#D5    E5                    D5      A5
    PM--|         PM------|         PM------|       PM------|     PM|
    E E E E E E E E   E E E E E E E E   E E E E E E E E   E E E E E E E E
||------------------|-----------------|-----------------|-----------------|
||o-----------------|-----------------|-----------------|-----3-3---------|
||------------------|-----------------|-----------------|-----2-2---------|
||------------------|-----------6-7---|-----------------|-----0-0-----2-2-|
||o-2-----6-7-8-9---|-2-----6-7-4-5---|-2-----2-1-0-----|-----0-0-----0-0-|
||--0-0-0-4-5-6-7-3-|-0-0-0-4-5-----0-|-0-0-0-------3-0-|-0-0-----0-0-----|


  E5    G#A5BbB5    E5    G#A5C#D5    E5                D5
  PM--|         PM------|         PM------|       PM|          PM  PM
  E E E E E E E E   E E E E E E E E   E E E E E E E E   Q  E E E E E E
|-----------------|-----------------|-----------------|------------------||
|-----------------|-----------------|-----------------|-3---------------o||
|-----------------|-----------------|-----------------|-2----------------||
|-----------------|-----------6-7---|-----------------|-0----------------||
|-2-----6-7-8-9---|-2-----6-7-4-5---|-2-----2-1-0-----|-0--0-2---5---5--o||
|-0-0-0-4-5-6-7-3-|-0-0-0-4-5-----0-|-0-0-0-------3-0-|--------3---2-----||


    N.C.(Em)         N.C.(Am)                          N.C.(D)
    Gtr III
    E E E E E E Q    E E E E E E Q    E E E E E E Q    E E E E S S E Q   8x
||--------------0--|----------------|----------------|-----2---0h2p0-----||
||o-----0-----0----|---------0------|----------------|-------3-------3--o||
||----0-----0------|-----5-----5----|-----0-----0----|---2---------------||
||--2-----4--------|---7---7-----7--|---2-----0------|-0-----------------||
||o----------------|-0--------------|-0-----2-----3--|------------------o||
||-----------------|----------------|----------------|-------------------||



Duration Legend
---------------
W - whole; H - half; Q - quarter; E - 8th; S - 16th; T - 32nd; X - 64th; a - acciaccatura
+ - note tied to previous; . - note dotted; .. - note double dotted
Uncapitalized letters represent notes that are staccato (1/2 duration)
Irregular groupings are notated above the duration line
Duration letters will always appear directly above the note/fret number it represents the
duration for.  Duration letters with no fret number below them represent rests.  Multi-
bar rests are notated in the form Wxn, where n is the number of bars to rest for.  Low
melody durations appear below the staff

Tablature Legend
----------------
 h   - hammer-on
 p   - pull-off
 b   - bend
 pb  - pre-bend
 r   - bend release (if no number after the r, then release immediately)
 /\  - slide into or out of (from/to "nowhere")
 s   - legato slide
 S   - shift slide
 - natural harmonic
[n]  - artificial harmonic
n(n) - tapped harmonic
 ~   - vibrato
 tr  - trill
 T   - tap
 TP  - trem. picking
 PM  - palm muting
\n/  - tremolo bar dip; n = amount to dip
 \n  - tremolo bar down
 n/  - tremolo bar up
/n\  - tremolo bar inverted dip
 =   - hold bend; also acts as connecting device for hammers/pulls
 <> - volume swell (louder/softer)
 x   - on rhythm slash represents muted slash
 o   - on rhythm slash represents single note slash

Misc Legend
-----------
 |  - bar
||  - double bar
||o - repeat start
o|| - repeat end
*|  - double bar (ending)
 :  - bar (freetime)
 $  - Segno
 &  - Coda
Tempo markers -  = BPM(8/16=s8/s16), where s8 = swing 8ths, s16 = swing 16ths

Tap to rate this tab
# A B C D E F G H I J K L M N O P Q R S T U V W X Y Z