Song name
# A B C D E F G H I J K L M N O P Q R S T U V W X Y Z

Annihilator - Edge tab

Annihilator - The Edge

tabbed by 
ol753_357lo@yahoo.co.uk

Tuning - E A D G B E


Both Gtrs
         PM--------------|              PM----------------------|
|------------------------------------------------------------------|
|------------------------------------------------------------------|
|------------------------------------------------------------------|
|-2-4--4---------------------------9--9----------------------------|
|-0-2--2-2-2-2-2-2-2-2-2-2-2-2-2-2-7--7----------------------------|
|---------------------------------------0-0-0-0-0-0-0-0-0-0-0-0-0--|


       PM------|      PM----|         PM------|
|-----------------------------------------------------------------|
|--------------------------------3--3-----------3------3----------|
|--------------------------------2--2-----------2------2----------|
|----------------2--2---------/4-------------------2-4---2-4-2----|
|-5--5-----------0--0-0-0-0-0---------2-2-2-2-2--------------0----|
|-3--3-3-3-3-3-3--------------------------------------------------|


Gtr 3
|--------------------------------------------------------|
|--------------------------------------------------------|
|-2-2h4----/4--2----2-2h4----2-2----2-4--2h4p2-----------|
|----------------4----------------4------------4-2-------|
|---------------------------------------------------5----|
|--------------------------------------------------------|

Gtr 3
|-------------------------------------------|
|-----------------------2--2b3r==2----------|
|---4-2---2-4------2-4-------------2-2h4----|
|/4-----4-------/4--------------------------|
|-------------------------------------------|
|-------------------------------------------|

Gtr 4
|--------------------------------------------|
|-----------------------5--5b7r==5-----------|
|---7-6---6-7------6-7--------------6-6h7----|
|/7-----7-------/7---------------------------|
|--------------------------------------------|
|--------------------------------------------|


Verse
Both Gtrs
       PM------|      PM|     PM     PM|   PM|      PM|     PM
|----------------------------------------------------------------|
|-3--3-----------3--3-----3-5---3--3-----------3--3--------------|
|-2--2-----------2--2-----2-2---2--2-----4-----2--2-----4-4------|
|----------------------------------------2--------------2-2------|
|------2-2-2-2-2------2-2----------------------------------------|
|-----------------------------0------0-0---0-0------0-0-----0----|


       PM|     PM     PM----|         PM----|
|------------------------------------------------------------------|
|----3-----2-3-------------------3--3------------3------3----------|
|----2-----2-2-------------------2--2------------2------2----------|
|----------------2--2---------/4--------------/4----2-4---2-4-2----|
|----------------0--0-0-0-0-0---------2-2-2-2-----------------0----|
|-3----3-3-----3---------------------------------------------------|

                          PM              PM
|-----------------------------------------------------|
|-----------------------3---2-3--3------3---2-3-------|
|-0------4-----2--------2---2-2--2------2---2-2-------|
|-0------2-----2-----/4---4----------/4---4------4----|
|-2------2-----0---------------------------------2----|
|-3------0--------------------------------------------|


Chorus 1
Both Gtrs
       PM|   PM|      PM|            PM|     PM|   PM|   
|---------------------------------------------------------------|
|---------------------------------------------------------------|
|----------------------------------5-----4-5-----5-----5-5------|
|-5--5-----5-----5--5-----5-5-4-2--5-----5-5-----5-----5-5------|
|-3--3-3-3-3-3-3-3--3-3-3-3-3-2-0----0-0-----0------------------|
|----------------------------------------------2---2-2-----2----|


       PM|   PM|
|---------------------|
|---------------------|
|----------------5----|
|----------3-----5----|
|----3-----------3----|
|-1----1-1---1-1------|


Gtr 3
|-0-----0-------0-----0-------3-----3---------------------0-----0------|
|---3-----3-------3-----3-------0-----0-------0-----0-------6-----6----|
|-----5-----5-------5-----5-------5-----5---5-----5-----------5-----5--|
|-----------------------------------------------7-----7----------------|
|----------------------------------------------------------------------|
|----------------------------------------------------------------------|


Repeat Intro
Repeat Verse
Repeat Chorus


Both Gtrs
play twice
|-------3-------------3--------------0---------------0----------|
|----------3-------------0---------8----8----------8----8-------|
|-----5------5------5------5----10--------10----10--------10----|
|---5-------------5-----------0---------------0-----------------|
|-3-------------0-----------------------------------------------|
|---------------------------------------------------------------|


|-------3-------------3-------------0-------3-----0--------|
|----------3-------------0--------6----6------6-----6------|
|-----5------5------5------5----5--------5------5-----5----|
|---5-------------5-----------0----------------------------|
|-3-------------0------------------------------------------|
|----------------------------------------------------------|


Gtr 3
|--------------------------------------------------------12-13-13h15--15--15-|
|-12h13-----12----12h13p12----------------------12-13-15---------------------|
|--------------------------12-12S14-------12-14------------------------------|
|----------------------------------------------------------------------------|
|----------------------------------------------------------------------------|
|----------------------------------------------------------------------------|


|-15--15p13p12-------------------------------------------------------------|
|--------------13--15--15b17r=15------13-15-15b17r15p13--------------------|
|----------------------------------14-------------------14-----------------|
|----------------------------------------------------------14--14-12-10----|
|--------------------------------------------------------------------------|
|--------------------------------------------------------------------------|


Gtr 4
|-------------------------------------------------------15-17-17h20--20--20--|
|-15h17-----15----15h17p15---------------------15-17-18----------------------|
|--------------------------16-16S17------16-17-------------------------------|
|----------------------------------------------------------------------------|
|----------------------------------------------------------------------------|
|----------------------------------------------------------------------------|


|-20--20p17p15-------------------------------------------------------------|
|--------------17--18--18b20r=18------17-18-18b20r18p17--------------------|
|----------------------------------17-------------------17-----------------|
|----------------------------------------------------------17--17-15-14----|
|--------------------------------------------------------------------------|
|--------------------------------------------------------------------------|


Gtr 3
    PM------|
|------------------|
|------------------|
|------------------|
|------------------|
|---3-3--3--3-5----|
|-\-1-1--1--1-3----|


Both Gtrs
|-------0-------------0--------------------------------------|
|-----6----6--------6----6------------0------------0---------|
|---5--------5----7--------7------5-----5--------5----5------|
|-3-------------5---------------7---7-----7----7--------7----|
|----------------------------0---------------0---------------|
|------------------------------------------------------------|


|------------|
|------------|
|-------0----|
|-3----------|
|------------|
|------------|


Gtr 3
|-----------------------|
|-----------------------|
|----------0------------|
|----------0-------2----|
|-3--------2-------0----|
|-1--------3------------|


                   PM----------|
|-------------------------------------|
|-------------------------------------|
|----------0--------------------------|
|----------0--------------------------|
|-3--------2-------3-3-3-3-3-3-3-3----|
|-1--------3----\--1-1-1-1-1-1-1-1----|


Both Gtrs
play twice, Gtr 3 Lead (to be added)
         PM--------------|              PM------------------|   PM
|------------------------------------------------------------------|
|------------------------------------------------------------------|
|-------------------------------------------------------------4----|
|-2-4--4---------------------------9--9-----------------------2----|
|-0-2--2-2-2-2-2-2-2-2-2-2-2-2-2-2-7--7----------------------------|
|---------------------------------------0-0-0-0-0-0-0-0-0-0-0---0--|


       PM------|      PM----|        PM------------------|
|-----------------------------------------------------------------|
|-----------------------------------------------------------------|
|-----------------------------------------------------------------|
|----------------2--2-----------4--4------------------------------|
|-5--5-----------0--0-0-0-0-0-0-2--2-2-2-2-2-2-2-2-2-2-2-2--------|
|-3--3-3-3-3-3-3--------------------------------------------------|


         PM--------------|              PM------------------|   PM
|------------------------------------------------------------------|
|------------------------------------------------------------------|
|-------------------------------------------------------------4----|
|-2-4--4---------------------------9--9-----------------------2----|
|-0-2--2-2-2-2-2-2-2-2-2-2-2-2-2-2-7--7----------------------------|
|---------------------------------------0-0-0-0-0-0-0-0-0-0-0---0--|


       PM------|      PM----|        PM------------|
|-----------------------------------------------------------------|
|-----------------------------------------------------------------|
|-----------------------------------------------------------------|
|----------------2--2-----------4--4-----------------4-4-4-2------|
|-5--5-----------0--0-0-0-0-0-0-2--2-2-2-2-2-2-2-2-2-2-2-2-0------|
|-3--3-3-3-3-3-3--------------------------------------------------|


Both Gtrs
play twice
                          PM              PM
|-----------------------------------------------------|
|-----------------------3---2-3--3------3---2-3-------|
|-0------4-----2--------2---2-2--2------2---2-2-------|
|-0------2-----2-----/4---4----------/4---4-----------|
|-2------2-----0--------------------------------------|
|-3------0--------------------------------------------|


Repeat Verse
Repeat Chorus twice


Tablature Legend
----------------
 h   - hammer-on
 p   - pull-off
 b   - bend
 pb  - pre-bend
 r   - bend release (if no number after the r, then release immediately)
 /\  - slide into or out of (from/to "nowhere")
 s   - legato slide
 S   - shift slide
  - natural harmonic
[n]  - artificial harmonic
n(n) - tapped harmonic
 ~   - vibrato
 tr  - trill
 T   - tap
 TP  - trem. picking
 PM  - palm muting
\n/  - tremolo bar dip; n = amount to dip
 \n  - tremolo bar down
 n/  - tremolo bar up
/n\  - tremolo bar inverted dip
 =   - hold bend; also acts as connecting device for hammers/pulls
 <>  - volume swell (louder/softer)
 x   - on rhythm slash represents muted slash
 o   - on rhythm slash represents single note slash

Misc Legend
-----------
 |  - bar
||  - double bar
||o - repeat start
o|| - repeat end
*|  - double bar (ending)
 :  - bar (freetime)
 $  - Segno
 &  - Coda
Tempo markers -  = BPM(8/16=s8/s16), where s8 = swing 8ths, s16 = swing 16ths
Tap to rate this tab
# A B C D E F G H I J K L M N O P Q R S T U V W X Y Z