Song name
# A B C D E F G H I J K L M N O P Q R S T U V W X Y Z

Annihilator - Back To The Palace tab

Annihilator - Back To The Palace

tabbed by 
ol753_357lo@yahoo.co.uk

Tuning - E A D G B E


Gtr 1
play twice
  PM               PM--|
|-----------------------------|
|------------------------3----|
|------------------------2----|
|------------------------0----|
|-2-4--------------------0----|
|-0-2--------------0-2-3------|


|-------------------------------|
|-------------------------------|
|-------------------------------|
|-4--------------4-4-4-4-4-4----|
|-2--------------2-2-2-2-2-2----|
|-------------------------------|


Gtr 2
play 3 times
  PM  PM|   PM|   PM|
|---|----------------------------|
|---|----------------------------|
|---|----------------------------|
|---|---4-----4-----4-----4-4----|
|---|----------------------------|
|-0-|-2---0-2---0-2---0-2--------|


4th time
  PM  PM|   PM|   PM|
|---|-------------------------------|
|---|-------------------------------|
|---|-------------------------------|
|---|---4-----4-----4-----4-4-4-4---|
|---|-------------------------------|
|-0-|-2---0-2---0-2---0-2-----------|


play above twice


Gtr 1
play twice
                              PM--|
|--------------------------------------|
|--------------------------------------|
|--------------------------------------|
|--------------------------------------|
|-2-4-----------4---4------------------|
|-0-2-----------2p0-2---------0-2-3----|


|-------------------------------------------|
|-3-----------------------------------------|
|-2-----------------------------------------|
|-0--------------4---------4-4-4-4-4-4-4----|
|-0--------------2---------2-2-2-2-2-2-2----|
|-------------------------------------------|


Gtr 2
play 3 times
  PM  PM  PM|   PM|   PM|
|---|----------------------------|
|---|----------------------------|
|---|----------------------------|
|---|---4-----4-----4-----4-4----|
|---|----------------------------|
|-0-|-2---0-2---0-2---0-2--------|


4th time
  PM  PM  PM|   PM|   PM|
|---|--------------------------------|
|---|--------------------------------|
|---|--------------------------------|
|---|---4-----4-----4-----4-4-4-4-4--|
|---|--------------------------------|
|-0-|-2---0-2---0-2---0-2------------|


play above twice


Gtr 3
play 3 times
  PM  PM  PM|   PM|   PM|
|---|----------------------------|
|---|----------------------------|
|---|---2-----2-----2-----2-2----|
|---|----------------------------|
|---|----------------------------|
|-0-|-2---0-2---0-2---0-2--------|


4th time
  PM  PM  PM|   PM|   PM|
|---|---------------------------------|
|---|---------------------------------|
|---|---2-----2-----2-----2-2-2-2-2---|
|---|---------------------------------|
|---|---------------------------------|
|-0-|-2---0-2---0-2---0-2-------------|


play above twice


Both Gtrs
  PM|   PM|   PM|   PM|       PM|   PM|   PM|   PM|
|----------------------------------------------------------|
|----------------------------------------------------------|
|----------------------------------------------------------|
|-----4-----4-----4-----4-4-------5-----5-----5-----5-5----|
|----------------------------------------------------------|
|-0-2---0-2---0-2---0-2-------0-2---0-2---0-2---0-2--------|


  PM|   PM|   PM|   PM|      PM|   PM|   PM|   PM|
|---------------------------------------------------------|
|---------------------------------------------------------|
|-----2-----2-----2-----2-2-------------------------------|
|--------------------------------5-----5-----5-----5-5----|
|---------------------------------------------------------|
|-0-2---0-2---0-2---0-2------0-2---0-2---0-2---0-2--------|


Gtr 1
  PM|   PM|   PM|   PM|       PM|   PM|   PM|   PM|
|----------------------------------------------------------|
|----------------------------------------------------------|
|----------------------------------------------------------|
|-----4-----4-----4-----4-4-------5-----5-----5-----5-5----|
|----------------------------------------------------------|
|-0-2---0-2---0-2---0-2-------0-2---0-2---0-2---0-2--------|


  PM|   PM|   PM|   PM|      PM|   PM|   PM|   PM|
|---------------------------------------------------------|
|---------------------------------------------------------|
|-----2-----2-----2-----2-2-------------------------------|
|--------------------------------5-----5-----5-----5-5----|
|---------------------------------------------------------|
|-0-2---0-2---0-2---0-2------0-2---0-2---0-2---0-2--------|


Gtr 2
  PM|   PM|   PM|   PM|       PM|   PM|   PM|   PM|
|----------------------------------------------------------|
|----------------------------------------------------------|
|-----2-----2-----2-----2-2-------4-----4-----4-----4-4----|
|----------------------------------------------------------|
|----------------------------------------------------------|
|-0-2---0-2---0-2---0-2-------0-2---0-2---0-2---0-2--------|


  PM|   PM|   PM|   PM|      PM|   PM|   PM|   PM|
|---------------------------------------------------------|
|-----2-----2-----2-----2-2------4-----4-----4-----4-4----|
|---------------------------------------------------------|
|---------------------------------------------------------|
|---------------------------------------------------------|
|-0-2---0-2---0-2---0-2------0-2---0-2---0-2---0-2--------|


Gtr 1
play 4 times, Gtr 2 accentuates parts
  PM--------------------|
|--------------------------------|
|--------------------------------|
|--------------------------------|
|--------------------------------|
|-------------------------4S5----|
|-3-2-0-3-2-0-3-2-0-3-2-0-2S3----|


Both Gtrs
play 4 times
  PM--------------------|
|--------------------------------|
|--------------------------------|
|--------------------------------|
|--------------------------------|
|-------------------------4S5----|
|-3-2-0-3-2-0-3-2-0-3-2-0-2S3----|


Both Gtrs
play 3 times
  PM--------------------|
|--------------------------------|
|--------------------------------|
|--------------------------------|
|--------------------------------|
|-------------------------5S6----|
|-3-2-0-3-2-0-3-2-0-3-2-0-3S4----|


4th time
  PM--------------|
|----------------------------|
|----------------------------|
|----------------------------|
|----------------------------|
|--------------------5--6----|
|-3-2-0-3-2-0-3-2-0--3--4----|


Verse
Both Gtrs
play 3 times
     PM------------|
|----------------------------|
|----------------------------|
|----------------------------|
|----------------------------|
|-7------------------5--6----|
|-5--0-0-0-0-0-0-0-0-3--4----|


4th time
  PM----------------------------|
|----------------------------------|
|----------------------------------|
|----------------------------------|
|----------------------------------|
|----------------------------------|
|-6-5-3-0-5-6-8-0-9-8-6-0-5-6-8-0--|


play above 4 times


Chorus
Both Gtrs
play twice
  PM------------------------------------------------------------|
|--------------------------------------------------------------------|
|--------------------------------------------------------------------|
|--------------------------------------------------------------------|
|--------------------------------------------------------------------|
|--------------------------------------------------------------------|
|-0-0-0-0-6-6-6-6-1-1-1-1-4-4-4-4-0-0-0-0-6-6-6-6-1-1-1-1-4-4-4-4----|


  PM----------------------------|
|--------------------------------------------------------------------|
|--------------------------------------------------------------------|
|--------------------------------------------------------------------|
|--------------------------------------------------------------------|
|---------------------------------3-3-3-3-4-4-4-4-3-3-3-3------------|
|-0-0-0-0-6-6-6-6-1-1-1-1-4-4-4-4-------------------------4-4-4-4----|


Both Gtrs
play 4 times, Gtr 3 Lead (to be added)
  PM--------------------|
|--------------------------------|
|--------------------------------|
|--------------------------------|
|--------------------------------|
|-------------------------4S5----|
|-3-2-0-3-2-0-3-2-0-3-2-0-2S3----|


Both Gtrs
play 3 times
  PM--------------------|
|--------------------------------|
|--------------------------------|
|--------------------------------|
|--------------------------------|
|-------------------------5S6----|
|-3-2-0-3-2-0-3-2-0-3-2-0-3S4----|


4th time
  PM--------------|
|----------------------------|
|----------------------------|
|----------------------------|
|----------------------------|
|--------------------5--6----|
|-3-2-0-3-2-0-3-2-0--3--4----|


Repeat Verse


Chorus
Both Gtrs
play twice
  PM------------------------------------------------------------|
|--------------------------------------------------------------------|
|--------------------------------------------------------------------|
|--------------------------------------------------------------------|
|--------------------------------------------------------------------|
|--------------------------------------------------------------------|
|-0-0-0-0-6-6-6-6-1-1-1-1-4-4-4-4-0-0-0-0-6-6-6-6-1-1-1-1-4-4-4-4----|


  PM----------------------------|
|--------------------------------------------------------------------|
|--------------------------------------------------------------------|
|--------------------------------------------------------------------|
|--------------------------------------------------------------------|
|---------------------------------3-3-3-3-4-4-4-4-3-3-3-3------------|
|-0-0-0-0-6-6-6-6-1-1-1-1-4-4-4-4-------------------------4-4-4-4----|


Gtr 1
play twice
  PM------------------------------------------------------------|
|--------------------------------------------------------------------|
|--------------------------------------------------------------------|
|--------------------------------------------------------------------|
|--------------------------------------------------------------------|
|--------------------------------------------------------------------|
|-0-0-0-0-6-6-6-6-1-1-1-1-4-4-4-4-0-0-0-0-6-6-6-6-1-1-1-1-4-4-4-4----|


  PM----------------------------|
|--------------------------------------------------------------------|
|--------------------------------------------------------------------|
|--------------------------------------------------------------------|
|--------------------------------------------------------------------|
|---------------------------------3-3-3-3-4-4-4-4-3-3-3-3------------|
|-0-0-0-0-6-6-6-6-1-1-1-1-4-4-4-4-------------------------4-4-4-4----|


Gtr 2
  PM------------------------------------------------------------|
|--------------------------------------------------------------------|
|--------------------------------------------------------------------|
|--------------------------------------------------------------------|
|--------------------------------------------------------------------|
|--------------------------------------------------------------------|
|-0-0-0-0-6-6-6-6-1-1-1-1-4-4-4-4-0-0-0-0-6-6-6-6-1-1-1-1-4-4-4-4----|


  PM----------------------------|
|--------------------------------------------------------------------|
|--------------------------------------------------------------------|
|--------------------------------------------------------------------|
|--------------------------------------------------------------------|
|---------------------------------6-6-6-6-7-7-7-7-6-6-6-6------------|
|-0-0-0-0-6-6-6-6-1-1-1-1-4-4-4-4-------------------------7-7-7-7----|


Both Gtrs
  PM------------------------------------------------------------|
|--------------------------------------------------------------------|
|--------------------------------------------------------------------|
|--------------------------------------------------------------------|
|--------------------------------------------------------------------|
|--------------------------------------------------------------------|
|-3-2-0-0-3-2-0-0-3-2-0-0-3-2-0-0-3-2-0-0-3-2-0-0-3-2-0-0-3-2-0-0----|


  PM------------------------------------------------------------|
|--------------------------------------------------------------------|
|--------------------------------------------------------------------|
|--------------------------------------------------------------------|
|--------------------------------------------------------------------|
|--------------------------------------------------------------------|
|-5-3-2-0-5-3-2-0-5-3-2-0-5-3-2-0-5-3-2-0-5-3-2-0-5-3-2-0-5-3-2-0----|


  PM------------------------------------------------------------|
|--------------------------------------------------------------------|
|--------------------------------------------------------------------|
|--------------------------------------------------------------------|
|--------------------------------------------------------------------|
|--------------------------------------------------------------------|
|-7-5-3-0-7-5-3-0-7-5-3-0-7-5-3-0-7-5-3-0-7-5-3-0-7-5-3-0-7-5-3-0----|


  PM------------------------------------------------------------|
|--------------------------------------------------------------------|
|--------------------------------------------------------------------|
|--------------------------------------------------------------------|
|--------------------------------------------------------------------|
|--------------------------------------------------------------------|
|-8-7-5-0-8-7-5-0-8-7-5-0-8-7-5-0-8-7-5-0-8-7-5-0-8-7-5-0-8-7-5-0----|


   PM-------------------------------------------------------------------|
|----------------------------------------------------------------------------|
|----------------------------------------------------------------------------|
|----------------------------------------------------------------------------|
|----------------------------------------------------------------------------|
|----------------------------------------------------------------------------|
|-10-8-7-0-10-8-7-0-10-8-7-0-10-8-7-0-10-8-7-0-10-8-7-0-10-8-7-0-10-8-7-0----|


   PM---------------------------------------------------------------------------|
|------------------------------------------------------------------------------------|
|------------------------------------------------------------------------------------|
|------------------------------------------------------------------------------------|
|------------------------------------------------------------------------------------|
|------------------------------------------------------------------------------------|
|-12-10-8-0-12-10-8-0-12-10-8-0-12-10-8-0-12-10-8-0-12-10-8-0-12-10-8-0-12-10-8-0----|


         PM       PM       PM       PM       PM       PM       PM       PM
|----------------------------------------------------------------------------|
|----------------------------------------------------------------------------|
|----------------------------------------------------------------------------|
|----------------------------------------------------------------------------|
|-10p9p7---10p9p7---10p9p7---10p9p7---10p9p7---10p9p7---10p9p7---10p9p7------|
|--------0--------0--------0--------0--------0--------0--------0--------0----|


           PM         PM         PM         PM
|-----------------------------------------------------------------------|
|-----------------------------------------------------------------------|
|-----------------------------------------------------------------------|
|---------------------------------------------9--9--9--9--9--9--9--9----|
|-14p12p10---14p12p10---14p12p10---14p12p10---7--7--7--7--7--7--7--7----|
|----------0----------0----------0----------0---------------------------|


  PM------------------------------------------------------------|
|--------------------------------------------------------------------|
|--------------------------------------------------------------------|
|--------------------------------------------------------------------|
|--------------------------------------------------------------------|
|-5-4-----5-4-----5-4-----5-4-----7-5-4---7-5-4---7-5-4---7-5-4------|
|-3-2-0-0-3-2-0-0-3-2-0-0-3-2-0-0-5-3-2-0-5-3-2-0-5-3-2-0-5-3-2-0----|


  PM----------------------------|    PM--|    PM--|    PM--|    PM--|
|------------------------------------------------------------------------|
|------------------------------------------------------------------------|
|------------------------------------------------------------------------|
|------------------------------------------------------------------------|
|-9-7-5---9-7-5---9-7-5---9-7-5---10-9-7---10-9-7---10-9-7---10-9-7------|
|-7-5-3-0-7-5-3-0-7-5-3-0-7-5-3-0--8-7-5-0--8-7-5-0--8-7-5-0--8-7-5-0----|


|----------------------------------------------------------------------------------------|
|----------------------------------------------------------------------------------------|
|----------------------------------------------------------------------------------------|
|----------------------------------------------------------------------------------------|
|-12-10-9---12-10-9---12-10-9---12-10-9---14-12-10---14-12-10---14-12-10---14-12-10------|
|-10--8-7-0-10--8-7-0-10--8-7-0-10--8-7-0-12-10--8-0-12-10--8-0-12-10--8-0-12-10--8-0----|


|--------------------------------------------------------------------------------|
|--------------------------------------------------------------------------------|
|--------------------------------------------------------------------------------|
|-12-11-9---12-11-9---10-11-9---12-11-9-------------------------9-9-9-9-9-9-9----|
|-10--9-7---10--9-7---10--9-7---10--9-7---14-12-10---14-12-10---7-7-7-7-7-7-7----|
|---------0---------0---------0---------0----------0----------0------------------|


Gtr 1, Gtr 2 accentuates parts
     PM      PM                  PM      PM
|-----------------------------------------------------------|
|------------------------------------------------------0----|
|--------------------------0-------------------------0------|
|------------------------0-------------------------4--------|
|-2----4--5----8S7-----3------2----4--5----8S7---6----------|
|-0--0-2--3--0-6S5-0-5--------0--0-2--3--0-6S5-0------------|


     PM      PM
|------------------------------------------------------------|
|------------------------------------------------------------|
|--------------------------0---------0-------------0---------|
|------------------------0---------0----0--------0----0------|
|-2----4--5----8S7-----3---------1--------1----3--------3----|
|-0--0-2--3--0-6S5-0-5---------3-------------1---------------|


Both Gtrs
play twice
    PM|   PM  PM|                  PM|   PM  PM|
|-----------------------------------------------------------------|
|------------------------------------------------------------0----|
|-----------------------------0----------------------------0------|
|---------------------------0----------------------------4--------|
|-2-----4---5-----8S7-----3------2-----4---5-----8S7---6----------|
|-0-0-0-2-0-3-0-0-6S5-0-5--------0-0-0-2-0-3-0-0-6S5-0------------|


    PM|   PM  PM|
|---------------------------------------------------------------|
|---------------------------------------------------------------|
|-----------------------------0---------0-------------0---------|
|---------------------------0---------0----0--------0----0------|
|-2-----4---5-----8S7-----3---------1--------1----3--------3----|
|-0-0-0-2-0-3-0-0-6S5-0-5---------3-------------1---------------|


Gtr 1
play twice
|-----------------------------------------------------------|
|-----------------------------------------------------------|
|-------0-------------0-------------0-------------0---------|
|-----0----0--------0----0--------0----0--------0----0------|
|---1--------1----3--------3----3--------3----3--------3----|
|-3-------------1-------------0-------------0---------------|


Gtr 2
play twice
|------------------------------|
|------------------------------|
|------------------------------|
|-0--------0--------0-------0--|
|-1--------3--------3-------3--|
|-3--------1--------0-------0--|


Both Gtrs
play twice
|------------------------|
|------------------------|
|-0--------0--------0----|
|-0--------0--------0----|
|-1--------3--------3----|
|-3--------1--------0----|


Both Gtrs
play twice
|------------------------|
|------------------------|
|------------------------|
|-0--------0--------0----|
|-1--------3--------3----|
|-3--------1--------0----|


Gtr 3
play twice
|--------------------------------------|
|-11--11h13---11--10--10h11--10--------|
|--------------------------------12----|
|--------------------------------------|
|--------------------------------------|
|--------------------------------------|


|--------------------------------------|
|-11--11h13---11--10-------------------|
|---------------------12--10--10h12----|
|--------------------------------------|
|--------------------------------------|
|--------------------------------------|


Both Gtrs
|----------------|
|----------------|
|----------------|
|-5-5-5-5-5-5----|
|-3-3-3-3-3-3----|
|----------------|


Gtr 1
  PM               PM--|
|-----------------------------|
|------------------------3----|
|------------------------2----|
|------------------------0----|
|-2-4--------------------0----|
|-0-2--------------0-2-3------|


|-------------------------------|
|-------------------------------|
|-------------------------------|
|-4--------------4-4-4-4-4-4----|
|-2--------------2-2-2-2-2-2----|
|-------------------------------|


Gtr 2
play 3 times
  PM  PM|   PM|   PM|
|---|----------------------------|
|---|----------------------------|
|---|----------------------------|
|---|---4-----4-----4-----4-4----|
|---|----------------------------|
|-0-|-2---0-2---0-2---0-2--------|


4th time
  PM  PM|   PM|   PM|
|---|-------------------------------|
|---|-------------------------------|
|---|-------------------------------|
|---|---4-----4-----4-----4-4-4-4---|
|---|-------------------------------|
|-0-|-2---0-2---0-2---0-2-----------|


Gtr 1
play twice
                              PM--|
|--------------------------------------|
|--------------------------------------|
|--------------------------------------|
|--------------------------------------|
|-2-4-----------4---4------------------|
|-0-2-----------2p0-2---------0-2-3----|


|---------------------------------------|
|-3-------------------------------------|
|-2-------------------------------------|
|-0--------------4---------4-4-4-4-4----|
|-0--------------2---------2-2-2-2-2----|
|---------------------------------------|


Gtr 2
play 3 times
  PM  PM  PM|   PM|   PM|
|---|----------------------------|
|---|----------------------------|
|---|----------------------------|
|---|---4-----4-----4-----4-4----|
|---|----------------------------|
|-0-|-2---0-2---0-2---0-2--------|


4th time
  PM  PM  PM|   PM|   PM|
|---|-----------------------------|
|---|-----------------------------|
|---|-----------------------------|
|---|---4-----4-----4-----4-4-4---|
|---|-----------------------------|
|-0-|-2---0-2---0-2---0-2---------|


Gtr 3
play 3 times
  PM  PM  PM|   PM|   PM|
|---|----------------------------|
|---|----------------------------|
|---|---2-----2-----2-----2-2----|
|---|----------------------------|
|---|----------------------------|
|-0-|-2---0-2---0-2---0-2--------|


4th time
  PM  PM  PM|   PM|   PM|
|---|-----------------------------|
|---|-----------------------------|
|---|---2-----2-----2-----2-2-2---|
|---|-----------------------------|
|---|-----------------------------|
|-0-|-2---0-2---0-2---0-2---------|


Both Gtrs
|---------|
|---------|
|---------|
|---------|
|-5--6----|
|-3--4----|


Repeat Verse
Repeat Chorus


Gtr 1
play twice
  PM------------------------------------------------------------|
|--------------------------------------------------------------------|
|--------------------------------------------------------------------|
|--------------------------------------------------------------------|
|--------------------------------------------------------------------|
|--------------------------------------------------------------------|
|-0-0-0-0-6-6-6-6-1-1-1-1-4-4-4-4-0-0-0-0-6-6-6-6-1-1-1-1-4-4-4-4----|


  PM----------------------------|
|--------------------------------------------------------------------|
|--------------------------------------------------------------------|
|--------------------------------------------------------------------|
|--------------------------------------------------------------------|
|---------------------------------3-3-3-3-4-4-4-4-3-3-3-3------------|
|-0-0-0-0-6-6-6-6-1-1-1-1-4-4-4-4-------------------------4-4-4-4----|


Gtr 2
  PM------------------------------------------------------------|
|--------------------------------------------------------------------|
|--------------------------------------------------------------------|
|--------------------------------------------------------------------|
|--------------------------------------------------------------------|
|--------------------------------------------------------------------|
|-0-0-0-0-6-6-6-6-1-1-1-1-4-4-4-4-0-0-0-0-6-6-6-6-1-1-1-1-4-4-4-4----|


  PM----------------------------|
|--------------------------------------------------------------------|
|--------------------------------------------------------------------|
|--------------------------------------------------------------------|
|--------------------------------------------------------------------|
|---------------------------------6-6-6-6-7-7-7-7-6-6-6-6------------|
|-0-0-0-0-6-6-6-6-1-1-1-1-4-4-4-4-------------------------7-7-7-7----|


  PM------------------------------------------------------------|
|--------------------------------------------------------------------|
|--------------------------------------------------------------------|
|--------------------------------------------------------------------|
|--------------------------------------------------------------------|
|--------------------------------------------------------------------|
|-0-0-0-0-9-9-9-9-4-4-4-4-7-7-7-7-0-0-0-0-9-9-9-9-4-4-4-4-7-7-7-7----|


  PM------------------------------------------------------------|
|--------------------------------------------------------------------|
|--------------------------------------------------------------------|
|--------------------------------------------------------------------|
|--------------------------------------------------------------------|
|---------------------------------6-6-6-6-7-7-7-7-6-6-6-6------------|
|-0-0-0-0-9-9-9-9-4-4-4-4-7-7-7-7-------------------------7-7-7-7----|


Both Gtrs, Gtr 3 Lead (to be added)
            PM----|
|-------------------------|
|-------------------------|
|-------------------------|
|-------------------------|
|-2-2--5-5--8--5--7--2----|
|-0-0--3-3--6--3--5--0----|


Tablature Legend
----------------
 h   - hammer-on
 p   - pull-off
 b   - bend
 pb  - pre-bend
 r   - bend release (if no number after the r, then release immediately)
 /\  - slide into or out of (from/to "nowhere")
 s   - legato slide
 S   - shift slide
  - natural harmonic
[n]  - artificial harmonic
n(n) - tapped harmonic
 ~   - vibrato
 tr  - trill
 T   - tap
 TP  - trem. picking
 PM  - palm muting
\n/  - tremolo bar dip; n = amount to dip
 \n  - tremolo bar down
 n/  - tremolo bar up
/n\  - tremolo bar inverted dip
 =   - hold bend; also acts as connecting device for hammers/pulls
 <>  - volume swell (louder/softer)
 x   - on rhythm slash represents muted slash
 o   - on rhythm slash represents single note slash

Misc Legend
-----------
 |  - bar
||  - double bar
||o - repeat start
o|| - repeat end
*|  - double bar (ending)
 :  - bar (freetime)
 $  - Segno
 &  - Coda
Tempo markers -  = BPM(8/16=s8/s16), where s8 = swing 8ths, s16 = swing 16ths
Tap to rate this tab
# A B C D E F G H I J K L M N O P Q R S T U V W X Y Z