Song name
# A B C D E F G H I J K L M N O P Q R S T U V W X Y Z

Annihilator - Knight Jumps Queen tab

Annihilator - Knight Jumps Queen

tabbed by 
ol753_357lo@yahoo.co.uk

Tuning - E A D G B E


(bass intro)


Both Gtrs
|----------|
|----------|
|----------|
|-12-12\---|
|-10-10\---|
|----------|


Both Gtrs
    PM|       PM|   PM  PM    PM|   PM|       PM|   PM  PM|     PM
|--------------------------------------------------------------------|
|--------------------------------------------------------------------|
|--------------------------------------------------------------------|
|---------------------------------------4-3--------------------------|
|-1-----5-4-3-----1---1---6-5-----1-----2-1-1-----1---1-----5-5------|
|-3-0-0-3-2-1-0-0-3-0-3-0-4-3-0-0-3-0-0-----3-0-0-3-0-3-0-0-3-3-0----|


    PM|       PM|   PM  PM    PM|   PM|       PM|   PM  PM------|
|--------------------------------------------------------------------|
|--------------------------------------------------------------------|
|--------------------------------------------------------------------|
|---------------------------------------4-3--------------------------|
|-1-----5-4-3-----1---1---6-5-----1-----2-1-1-----1---1-----5-4-3----|
|-3-0-0-3-2-1-0-0-3-0-3-0-4-3-0-0-3-0-0-----3-0-0-3-0-3-0-0-3-2-1----|


Both Gtrs
play twice, Gtr 3 Lead (to be added)
  PM|   PM|   PM|     PM|   PM    PM|   PM|   PM|   
|--------------------------------------------------------------------|
|--------------------------------------------------------------------|
|--------------------------------------------------------------------|
|--------------------------------------------------------------------|
|-----5-----5-----7S8-----5---7-5-----5-----5-----1---2S3-0-4-5------|
|-0-0-3-0-0-3-0-0-5S6-0-0-3-0-5-3-0-0-3-0-0-3-0-0---3-----------3----|


Verse
Gtr 1
|-----0----------0--------0----------------0----|
|---9---------------9--------9-----------9------|
|-7-------------------7--------7-------7--------|
|-----------------------------------------------|
|-----------------------------------------------|
|-----------------------------------------------|


Gtr 2
|-----0----------0----------0-------------------|
|---9---------------12---------12---------------|
|-7--------------------10---------10------------|
|-----------------------------------------------|
|-----------------------------------------------|
|-----------------------------------------------|


Both Gtrs
|--------0---5---------0----|
|------6---6---6-----6------|
|-3-3------------5-3--------|
|---------------------------|
|---------------------------|
|---------------------------|


Both Gtrs
|----------|
|----------|
|----------|
|-12-12\---|
|-10-10\---|
|----------|


Chorus
Both Gtrs
    PM|       PM|   PM  PM    PM|   PM|       PM|   PM  PM|     PM
|--------------------------------------------------------------------|
|--------------------------------------------------------------------|
|--------------------------------------------------------------------|
|---------------------------------------4-3--------------------------|
|-1-----5-4-3-----1---1---6-5-----1-----2-1-1-----1---1-----5-5------|
|-3-0-0-3-2-1-0-0-3-0-3-0-4-3-0-0-3-0-0-----3-0-0-3-0-3-0-0-3-3-0----|


    PM|       PM|   PM  PM    PM|   PM|       PM|   PM  PM------|
|--------------------------------------------------------------------|
|--------------------------------------------------------------------|
|--------------------------------------------------------------------|
|---------------------------------------4-3--------------------------|
|-1-----5-4-3-----1---1---6-5-----1-----2-1-1-----1---1-----5-4-3----|
|-3-0-0-3-2-1-0-0-3-0-3-0-4-3-0-0-3-0-0-----3-0-0-3-0-3-0-0-3-2-1----|


  PM|   PM|   PM|     PM|   PM    PM|   PM|   PM|   
|--------------------------------------------------------------------|
|--------------------------------------------------------------------|
|--------------------------------------------------------------------|
|--------------------------------------------------------------------|
|-----5-----5-----7S8-----5---7-5-----5-----5-----1---2S3-0-4-5------|
|-0-0-3-0-0-3-0-0-5S6-0-0-3-0-5-3-0-0-3-0-0-3-0-0---3-----------3----|


  PM|   PM|   PM|     PM|   PM    PM|   PM|      
|------------------------------------------------------|
|------------------------------------------------------|
|------------------------------------------------------|
|------------------------------------------------------|
|-----5-----5-----7S8-----5---7-5-----5-----5-7\-------|
|-0-0-3-0-0-3-0-0-5S6-0-0-3-0-5-3-0-0-3-0-0-3-5\-------|


Repeat Verse


Chorus
Both Gtrs
    PM|       PM|   PM  PM    PM|   PM|       PM|   PM  PM|     PM
|--------------------------------------------------------------------|
|--------------------------------------------------------------------|
|--------------------------------------------------------------------|
|---------------------------------------4-3--------------------------|
|-1-----5-4-3-----1---1---6-5-----1-----2-1-1-----1---1-----5-5------|
|-3-0-0-3-2-1-0-0-3-0-3-0-4-3-0-0-3-0-0-----3-0-0-3-0-3-0-0-3-3-0----|


    PM|       PM|   PM  PM    PM|   PM|       PM|   PM  PM------|
|--------------------------------------------------------------------|
|--------------------------------------------------------------------|
|--------------------------------------------------------------------|
|---------------------------------------4-3--------------------------|
|-1-----5-4-3-----1---1---6-5-----1-----2-1-1-----1---1-----5-4-3----|
|-3-0-0-3-2-1-0-0-3-0-3-0-4-3-0-0-3-0-0-----3-0-0-3-0-3-0-0-3-2-1----|


  PM|   PM|   PM|     PM|   PM    PM|   PM|   PM|   
|--------------------------------------------------------------------|
|--------------------------------------------------------------------|
|--------------------------------------------------------------------|
|--------------------------------------------------------------------|
|-----5-----5-----7S8-----5---7-5-----5-----5-----1---2S3-0-4-5------|
|-0-0-3-0-0-3-0-0-5S6-0-0-3-0-5-3-0-0-3-0-0-3-0-0---3-----------3----|


  PM|   PM|   PM|     PM|   PM    PM|   PM|     PM 
|-----------------------------------------------------|
|-----------------------------------------------------|
|-----------------------------------------------------|
|-----------------------------------------------------|
|-----5-----5-----7S8-----5---7-5-----5-----5-5-------|
|-0-0-3-0-0-3-0-0-5S6-0-0-3-0-5-3-0-0-3-0-0-3-3-0-----|


Gtr 1
play once
    PM
|--------------------|
|--------------------|
|--------------------|
|--------------------|
|-1---2S3-0-4-5------|
|---3-----------3----|

Gtr 2
play once
    PM
|--------------------|
|--------------------|
|--------------------|
|--------------------|
|-1---2S3-0-4-5------|
|---3-----------3----|


Both Gtrs, Gtr 3 Lead (to be added)
    PM|       PM|   PM  PM    PM|   PM|       PM|   PM  PM|     PM
|--------------------------------------------------------------------|
|--------------------------------------------------------------------|
|--------------------------------------------------------------------|
|---------------------------------------4-3--------------------------|
|-1-----5-4-3-----1---1---6-5-----1-----2-1-1-----1---1-----5-5------|
|-3-0-0-3-2-1-0-0-3-0-3-0-4-3-0-0-3-0-0-----3-0-0-3-0-3-0-0-3-3-0----|


    PM|       PM|   PM  PM    PM|   PM|       PM|   PM  PM------|
|--------------------------------------------------------------------|
|--------------------------------------------------------------------|
|--------------------------------------------------------------------|
|---------------------------------------4-3--------------------------|
|-1-----5-4-3-----1---1---6-5-----1-----2-1-1-----1---1-----5-4-3----|
|-3-0-0-3-2-1-0-0-3-0-3-0-4-3-0-0-3-0-0-----3-0-0-3-0-3-0-0-3-2-1----|


  PM|   PM|   PM|     PM|   PM    PM|   PM|   PM|   
|--------------------------------------------------------------------|
|--------------------------------------------------------------------|
|--------------------------------------------------------------------|
|--------------------------------------------------------------------|
|-----5-----5-----7S8-----5---7-5-----5-----5-----1---2S3-0-4-5------|
|-0-0-3-0-0-3-0-0-5S6-0-0-3-0-5-3-0-0-3-0-0-3-0-0---3-----------3----|


  PM|   PM|   PM|     PM|   PM    PM|   PM|
|----------------------------------------------------|
|----------------------------------------------------|
|----------------------------------------------------|
|---------------------------------------------2------|
|-----5-----5-----7S8-----5---7-5-----5--------------|
|-0-0-3-0-0-3-0-0-5S6-0-0-3-0-5-3-0-0-3-0-0-3---0----|


Gtr 1
                                                     PM  PM|
|-------------------------------------------------------------------|
|-------------------------------------------------------------------|
|-------------------------------------------------------------------|
|-----------------7-5---5-7-9-10-10-10--7-----5-5\-----5-----5-5----|
|-----------5-6-7-----9-----------------5--5--3-3\-2---3-----3-3----|
|-5-3-5-6-7--------------------------------3-------0-0---0-0--------|


Gtr 2
                                                  PM  PM|
|----------------------------------------------------------------|
|----------------------------------------------------------------|
|-----------------5-4---4-5-7-9-9-9------------------------------|
|---------------------7--------------7-----5-5\-----5-----5-5----|
|-----------5-6-7--------------------5--5--3-3\-2---3-----3-3----|
|-5-3-5-6-7-----------------------------3-------0-0---0-0--------|


Repeat Verse


Both Gtrs
play to fade, Gtr 3 Lead (to be added)
  PM|   PM|   PM|     PM|   PM    PM|   PM|   PM|   
|--------------------------------------------------------------------|
|--------------------------------------------------------------------|
|--------------------------------------------------------------------|
|--------------------------------------------------------------------|
|-----5-----5-----7S8-----5---7-5-----5-----5-----1---2S3-0-4-5------|
|-0-0-3-0-0-3-0-0-5S6-0-0-3-0-5-3-0-0-3-0-0-3-0-0---3-----------3----|



Tablature Legend
----------------
 h   - hammer-on
 p   - pull-off
 b   - bend
 pb  - pre-bend
 r   - bend release (if no number after the r, then release immediately)
 /\  - slide into or out of (from/to "nowhere")
 s   - legato slide
 S   - shift slide
  - natural harmonic
[n]  - artificial harmonic
n(n) - tapped harmonic
 ~   - vibrato
 tr  - trill
 T   - tap
 TP  - trem. picking
 PM  - palm muting
\n/  - tremolo bar dip; n = amount to dip
 \n  - tremolo bar down
 n/  - tremolo bar up
/n\  - tremolo bar inverted dip
 =   - hold bend; also acts as connecting device for hammers/pulls
 <>  - volume swell (louder/softer)
 x   - on rhythm slash represents muted slash
 o   - on rhythm slash represents single note slash

Misc Legend
-----------
 |  - bar
||  - double bar
||o - repeat start
o|| - repeat end
*|  - double bar (ending)
 :  - bar (freetime)
 $  - Segno
 &  - Coda
Tempo markers -  = BPM(8/16=s8/s16), where s8 = swing 8ths, s16 = swing 16ths
Tap to rate this tab
 
# A B C D E F G H I J K L M N O P Q R S T U V W X Y Z