Song name
# A B C D E F G H I J K L M N O P Q R S T U V W X Y Z

Annihilator - Downright Dominate tab

-----------------------------------------------------------------------------|Downright 
(feat. Alexi Laiho) - Annihilator
-----------------------------------------------------------------------------|
Tabbed by: kyehatton
Email: kyehatton@hotmail.co.uk

Tuning: DADGBE

this is one of newest favourite riffs of all time played by Alexi laiho on the album (i
off of Annihilator's new abum Metal. This is my attempt at the intro riff.

   this part is first time only
e|--------------------------------|------------------------------|
B|--------------------------------|------------------------------|
G|--------------------------------|------------------------------|
D|---0----------------------------|---6------------4-------------|
A|---0----------------------------|--5-5--3-6-5---3-3---0-3-5----|
E|---0----------------***********-|-------3-6-5---------0-3-5----|
--------let ring-------------------------------------------------|pick scrape

e|--------------------------------|
B|--------------------------------|
G|------------------------4/7-----|
D|----6-------------4/7------6\3--|
A|---5-5--3-6-5----3---6\3--------|
E|--------3-6-5-------------------| then go back to beggining but miss the first part 
reapeat 12 times (i think)

* = pick scarpe
/ = slide up
\ = slide down
Tap to rate this tab
 
# A B C D E F G H I J K L M N O P Q R S T U V W X Y Z