Song name
# A B C D E F G H I J K L M N O P Q R S T U V W X Y Z

Annotations Of An Autopsy - Before The Throne Of Infection tab

drop B= B F# B E G# C#

its right up until the verse where he starts pig squelling.
everything should be about right. if not tell me and i will correct it.
and guys. no negative comments. im just doing this coz i enjoy it!

C#|---------------------------------------------------|
G#|---------------------------------------------------|
 E|---------------------------------------------------|
 B|---------------------------------------------------|
F#|-000-12-000-13-000-10-9-7-000-12-000-13-000-10-9-7-|
 B|-000----000----000--------000----000----000--------|

C#|---------------------------------------------------------------|
G#|---------------------------------------------------------------|
 E|---------------------------------------------------------------|
 B|---------------------------------------------------------------|
F#|-0-0-0-00-0-0-0-00-0-0-0-00-5-4-5-7-2-2-2-22-2-2-2-22-2-2-2-22-|
 B|-0-0-0-00-0-0-0-00-0-0-0-00---------2-2-2-22-2-2-2-22-2-2-2-22-|
                                           ^    
               where the arrow is lead does this ONCE:C#|---------|
                                                      G#|---------|
                                                       E|---------|
                                                       B|---------|
                                                      F#|-7-5-4-2-|
                                                       B|---------|

C#|----------------------------------------------------------------------|
G#|----------------------------------------------------------------------|
 E|----------------------------------------------------------------------|
 B|----------------------------------------------------------------------|
F#|-0-0-0-00-0-0-0-00-0-0-0-00-5-4-5-7-2-2-2-22-2-2-2-22-2-2-2-22-9-5-4-2|
 B|-0-0-0-00-0-0-0-00-0-0-0-00---------2-2-2-22-2-2-2-22-2-2-2-22--------|

       do the above X3
Tap to rate this tab
# A B C D E F G H I J K L M N O P Q R S T U V W X Y Z