Annotations Of An Autopsy - Cryogenica tab

I haven't seen this tab anywhere so I thought i'd just give out the intro for a 
quick fix and then I'll tab the rest later. Hopefully...
This is probably about a minute or so of the song.

-------------------------------------------------------------------------------
			     CRYOGENICA - Annotations of an Autopsy
-------------------------------------------------------------------------------


* = Palm Muting

|-----------------------------------------------------------------------|
|-----------------------------------------------------------------------|
|-----------------------------------------------------------------------|
|-----------------------------------------------------------------------|
|---------888---------888--------777--------777--------101010-----------|
|-000-000-----000-000-----000-000----000-000----888-888-------888-888---|
  *** ***     *** ***     *** ***    *** ***    *** ***       *** ***


|-----------------------------------------------------------------------|
|-----------------------------------------------------------------------|
|-----------------------------------------------------------------------|
|-----------------------------------------------------------------------|
|-101010---------888---------777888777----------------------------------|
|--------777-777-----777-777--------------------------------------------|
         *** ***     *** ***
X2

|-----------------------------------------------------------------------|
|-----------------------------------------------------------------------|
|-----------------------------------------------------------------------|
|--------------------[KILL]---------------------------------------------|
|-000-000--000-000----------000-000--000-000---000-000-000-000--000-000-3-2-|
|-000-000--000-000----------000-000--000-000---000-000-000-000--000-000----3-2|
  *** ***  *** ***          *** ***  *** ***   *** *** *** ***  *** *** *  *


|-----------------------------------------------------------------------|
|-----------------------------------------------------------------------|
|-----------------------------------------------------------------------|
|-----------------------------------------------------------------------|
|--000-000--000-000---000-000-000-000--000-000-3-2----------------------|
|--000-000--000-000---000-000-000-000--000-000----3-2-------------------|
   *** ***  *** ***   *** *** *** ***  *** *** *  *
|-----------------------------------------------------------------------|
|-----------------------------------------------------------------------|
|-----------------------------------------------------------------------|
|-----------------------------------------------------------------------|
|-000000-0-0-0-0-000000-0-0-0-0-000000-0-0-0-0-000000-0-0---------------|
|-000000-0-0-0-0-000000-0-0-0-0-000000-0-0-0-0-000000-0-0---------------|
  ****** * * * * ****** * * * * ****** * * * * ****** * *

|-----------------------------------------------------------------------|
|-----------------------------------------------------------------------|
|-----------------------------------------------------------------------|
|-----------------------------------------------------------------------|
|---------888---------888--------777--------777--------101010-----------|
|-000-000-----000-000-----000-000----000-000----888-888-------888-888---|
  *** ***     *** ***     *** ***    *** ***    *** ***       *** ***


|-----------------------------------------------------------------------|
|-----------------------------------------------------------------------|
|-----------------------------------------------------------------------|
|-----------------------------------------------------------------------|
|-101010---------888---------777888777----------------------------------|
|--------777-777-----777-777--------------------------------------------|
         *** ***     *** ***
X2
Tap to rate this tab
 
# A B C D E F G H I J K L M N O P Q R S T U V W X Y Z