Annotations Of An Autopsy - Welcome To Sludge City tab

Welcome to Sludge City
Annotations Of An Autopsy
Drop B (C down half step)

(------------------------------------------------|
(------------------------------------------------|
(------------------------------------------------|
(-0--0-0-0--0-0----------------------------------|
(-0--0-0-0--0-0-8-8-8-8-8-8-8-8-7-7-7-7-5-5-5-5--|
(-0--0-0-0--0-0----------------------------------|
( .  . . .  . .

---------------------------------------------------|
---------------------------------------------------|
---------------------------------------------------|
-0--0-0-0--0-0-------------------------------------|
-0--0-0-0--0-0-8-8-8-8-8-8-8-8-7-7-7-7-10-10-10-10-|
-0--0-0-0--0-0-------------------------------------|
 .  . . .  . .
---------------------------------------------------|
---------------------------------------------------|
---------------------------------------------------|
-0--0-0-0--0-0-------------------------------------|
-0--0-0-0--0-0-8-8-8-8-8-8-8-8-7-7-7-7-------------|
-0--0-0-0--0-0-------------------------10-10-10-10-|
 .  . . .  . .
----------------------------------------------------------------------------------|)
----------------------------------------------------------------------------------|)
----------------------------------------------------------------------------------|)
-0--0-0-0--0-0--------------------------------------------------------------------|)
-0--0-0-0--0-0-8-8-8-8-7-7-7-7------------10-10-10-10-8-8-8-8-7-7-7-7-------------|)
-0--0-0-0--0-0-----------------10-10-10-10----------------------------10-10-10-10-|)
 .  . . .  . .                                                                     )x2

----------------------------------------------------|
----------------------------------------------------|
----------------------------------------------------|
----------------------------------------------------|
-3-3-2-2----5-5-3-3---------------------------------|
---------3-3--------3-3-1-1-1-1---------------------|x8

------------------|   ------|
------------------|   ------|
------------------|   ------|
-1-2-1-3-2-1-2-1--|   ------|
-1-2-1-3-2-1-2-1--|   ------|
-1-2-1-3-2-1-2-1--|x4 -(1)--|
 . . . . . . . .                                

------------------|   ------|
------------------|   ------|
------------------|   ------|
-1-2-1-3-2-1-2-1--|   ------|
-1-2-1-3-2-1-2-1--|   ------|
-1-2-1-3-2-1-2-1--|x4 -(3)--|
 . . . . . . . .                                

----------------------------------------------------|  -----|	
----------------------------------------------------|  -----|
----------------------------------------------------|  -----|
-1-2-1-3-2-1-------1-2-1-3-2-1-2-1------------------|  -0~--|
-1-2-1-3-2-1-------1-2-1-3-2-1-2-1------------------|  -0~--|
-1-2-1-3-2-1-------1-2-1-3-2-1-2-1------------------|x2-0~--|
 . . . . . .       . . . . . . . .

----------------------------------------------------------------------------------|
----------------------------------------------------------------------------------|
----------------------------------------------------------------------------------|
-1-1-1-1-------------------------------------1-1-1-1-1-1-1-1----------------------|
-1-1-1-1--22222222-333333--------------------1-1-1-1-1-1-1-1--3333-2222-6666-5555-|
-0-0-0-0------------------333333333333333333-0-0-0-0-0-0-0-0----------------------|x2
 . . . .                                     . . . . . . . .

-------------------------------------------------|
-------------------------------------------------|
-------------------------------------------------|
-0-0-0-----0000--0-0-0-0-3-2-6-5-----------------|
-0-0-0-----0000--0-0-0-0-3-2-6-5-----------------|
-0-0-0-----0000--0-0-0-0-3-2-6-5-----------------|x2
 . . .     ....  . . . . . . . .

--------------------------------------------------------------------------------|
--------------------------------------------------------------------------------|
--------------------------------------------------------------------------------|
-3-3-3-3-3-3-3-3----2-2-2-2-2-2-2-2---------------------------------------------|
-2-2-2-2-2-2-2-2----1-1-1-1-1-1-1-1---------------------------------------------|
-3-3-3-3-3-3-3-3----2-2-2-2-2-2-2-2---------------------------------------------|x2
 . . . . . . . .    . . . . . . . .

--------------------------------------------------------------------------|
--------------------------------------------------------------------------|
--------------------------------------------------------------------------|
--------------------------------------------------------------------------|
--------------------------------------------------------------------------|
-3333333333333333--22222222--11111111-------------------------------------|x2

----------------------------------------------------------|
----------------------------------------------------------|
----------------------------------------------------------|
----------------------------------------------------------|
-3-3-3-3-----------2-2-------1-1--------------------------|
-2-2-2-2-22222222--1-1-1111--0-0-4444---------------------|
-3-3-3-3-----------2-2-------1-1--------------------------|x8
 . . . .           . .       . .

Tap to rate this tab
 
# A B C D E F G H I J K L M N O P Q R S T U V W X Y Z