Song name
# A B C D E F G H I J K L M N O P Q R S T U V W X Y Z

Annuals - Sore tab

----------------------------------------------------------------------------
			     Sore - Annuals
----------------------------------------------------------------------------
Tabbed by: Kylan M
Email: legitimatecry@hotmail.com

Hey everyone, this is my first tab but I think itís pretty accurate.
Iíve tabbed most of the guitar riffs except for the chords during the chorus of the song 
couldnít pick them out exactly). If anyone has any questions or suggestions you can 
me at the email address above. Enjoy!


Tuning: Standard

Capo on 3


E|--2h4-4-------------------0------2h4-4-7----------------------|
B|--------0-2---2---0-2-0-----2-0----------2---2---0-2-0--------|
G|---------------------------------------------------------2-1--|
D|--------------------------------------------------------------|
A|----------0-----0-------0----------------0-----0-------0------|
E|--0-----------------------------------------------------------|

e|-----------------------------|
B|--------2--------------2-----|
G|-----3----3---3------3---3---|
D|------------4------4-------4-|
A|--4--------------------------|
E|-----------------2-----------|

e|--7h9-9-0-2---2p0---0-4----|
B|-----------------2------0--|
G|---------------------------|
D|---------------------------|
A|----------0----------------|
E|--0------------------------|

| /  slide up
| \  slide down
| h  hammer-on
| p  pull-off
| ~  vibrato
| +  harmonic
| x  Mute note
=============================================================================
Tap to rate this tab
 
# A B C D E F G H I J K L M N O P Q R S T U V W X Y Z