Song name
# A B C D E F G H I J K L M N O P Q R S T U V W X Y Z

Annuals - Hair Dont Grow tab

i don't know if they always do it, but at least for this song they tune down a half step 
drop the tuning. it looks like this:
Eb
Bb
Gb
Db
Ab
Db
keep in mind that this is sort of including a second guitar for the ending fills.
rhythm kind of just rings out during, but with one guitar you can just play the fills yourself.
and also this is my first tab. so whatever that means. anyway.


intro:
|---------------|
|---------------|
|---------------|
|---------------|
|---------------|
|-14/-----------|

|--------------------------------------------------------------------|
|-----------------------------------------------------10-15----------|
|------------------------------------------------------9-14----------|
|-0-0-2-0--4p2---0-0-2-0--------0-0-2-0-3-2-0-3-2-0~-----------------|
|-0-0-2-0-----5--0-0-2-0--5v~---0-0-2-0-3-2-0-3-2-0~-----------------|
|-0-0-2-0--------0-0-2-0--------0-0-2-0-3-2-0-3-2-0~-----------------|

|--------------------------------------------------------------------|
|--------------------------------------------------------------------|
|--------------------------------------------------------------------|
|-0-0-2-0--4p2---0-0-2-0--------0-0-2-0-3-4p2---2-4-2----------------|
|-0-0-2-0-----5--0-0-2-0--5v~---0-0-2-0-3-----5-------5~~------------|
|-0-0-2-0--------0-0-2-0--------0-0-2-0-3----------------------------|

main riff:
|--------------------------------------------------------------------|
|-----------------------------------------------------10-15----------|
|------------------------------------------------------9-14----------|
|-0-0-2-0--4p2---0-0-2-0--------0-0-2-0-3-2-0-3-2-0~-----------------|
|-0-0-2-0-----5--0-0-2-0--5v~---0-0-2-0-3-2-0-3-2-0~-----------------|
|-0-0-2-0--------0-0-2-0--------0-0-2-0-3-2-0-3-2-0~-----------------|

|--------------------------------------------------------------------|
|--------------------------------------------------------------------|
|--------------------------------------------------------------------|
|-0-0-2-0--4p2---0-0-2-0--------0-0-2-0-3-2-0-3-2-0~-----------------|
|-0-0-2-0-----5--0-0-2-0--5v~---0-0-2-0-3-2-0-3-2-0~-----------------|
|-0-0-2-0--------0-0-2-0--------0-0-2-0-3-2-0-3-2-0~-----------------|

|--------------------------------------------------------------------|
|--------------------------------------------------------------------|
|--------------------------------------------------------------------|
|-5-5-5-5--5-5-5--5-5-5-5-5-5-5--0-0-2-0--4p2---2-4-2----------------|
|-5-5-7-5--5-7-5--5-5-7-5-7-5-7--0-0-2-0------5-------5~~------------|
|-5-5-5-5--5-5-5--5-5-5-5-5-5-5--0-0-2-0-----------------------------|
Tap to rate this tab
 
# A B C D E F G H I J K L M N O P Q R S T U V W X Y Z