Song name
# A B C D E F G H I J K L M N O P Q R S T U V W X Y Z

Annuals - Ida My tab

 Ida, My - Annuals
-------------------------------------------------------------------------------
Tabbed by: Nipps
Email: Pizza50110@aol.com

Tuning:1/2 step down
                            
e|----4---------------|----4--------------|
B|--------0-----------|--------0----------|
G|------------6-------|------------6------|  4x
D|----------------6---|----------------6--|
A|--0---0---0---0-----|-------------------|
E|--------------------|--0---0---0---0----|
       4x                     4x
e|----0---------------|----4------------------0--------------|
B|--------0-----------|--------0------------------4----------|
G|------------6-------|------------6------------------6------|  2x
D|----------------6---|----------------6------------------6--|
A|--0---0---0---0-----|--------------------------------------|
E|--------------------|--0---0---0---0------0---0---0---0----|
         4x                       2x

   Techno Part

e|--4p0---------------4p0-------------4p0--------------4p0-------------------|
B|------0---4---4---------0----4----------0---4---4--------0---4-------------|
G|--------6---6---6----------6---6----------6---6---6--------6---6-----------| One guitar 
D|---------------------------------6-------------------------------6---------| does this
A|---------------------------------------------------------------------------|for the rest 
E|---------------------------------------------------------------------------|of the song

   When drums come in

e|------------------------------------------17-17-17-17-17--16-16-16-16-16-16|
B|------------------------------------------x--x--x--x--x---x--x--x--x--x--x-|
G|-1----------------------------------------14-14-14-14-14--13-13-13-13-13-13|
D|-2-------------------------------------------------------------------------|
A|-2-------------------------------------------------------------------------|
E|---------------------------------------------------------------------------|

END
http://www.acefu.com/artist.php?bid=301

| /  slide up
| \  slide down
| h  hammer-on
| p  pull-off
| ~  vibrato
| +  harmonic
| x  Mute note
===============================================================================
Tap to rate this tab
# A B C D E F G H I J K L M N O P Q R S T U V W X Y Z