Song name
# A B C D E F G H I J K L M N O P Q R S T U V W X Y Z

Anonymous - Control tab

Help us improve GuitareTab! Take a short survey!
LEAD GUITAR PARTS:

^-bend

~~~~~~~~~~~~~~~~~~~~~~~~~~~~~~~~~~~~~~~~~~~~~~~~~~~~~~~~~~~~~~~~~~~~~~~~~~~~
Intro:(no distortion)

1|---------------------------------------------------------------|
2|------3-----4---3----------------------------------------------|
3|--0-0---0-0---0------------------------------------------------|x16
4|---------------------------------------------------------------|
5|---------------------------------------------------------------|
6|---------------------------------------------------------------|
verse\chorus:
(distortion)
1|---------------------------------------------------------------|
2|------3-----4---3----------------------------------------------|
3|--0-0---0-0---0------------------------------------------------|x 16
4|---------------------------------------------------------------|
5|---------------------------------------------------------------|
6|---------------------------------------------------------------|


solo # 1:
1|---------------------------------------------13^-13^-13^---------------|
2|---13^-13^-13^-11-13-11----13^-13^-13^-11-13---------------------------|
3|-----------------------------------------------------------------------|
4|-----------------------------------------------------------------------|
5|-----------------------------------------------------------------------|
6|-----------------------------------------------------------------------|

1|-9^-9^-9^-9^-9^--13^-13^-13^-13^-13^--15^-15^-17^17^-19^-21^-21^-21^---|
2|-----------------------------------------------------------------------|
3|-----------------------------------------------------------------------|
4|-----------------------------------------------------------------------|
5|-----------------------------------------------------------------------|
6|-----------------------------------------------------------------------|


1|-21^21^21^21^21^--15^15^15^15^15^--17^17^17^17^17^--11-13-11-13-13^----|
2|-----------------------------------------------------------------------|
3|-----------------------------------------------------------------------|
4|-----------------------------------------------------------------------|
5|-----------------------------------------------------------------------|
6|-----------------------------------------------------------------------|

1|------------------13^13^13^13^13^--9^9^9^9^9^--15^17^19^---------------|
2|--13^13^13^13^13^------------------------------------------------------|
3|-----------------------------------------------------------------------|
4|-----------------------------------------------------------------------|
5|-----------------------------------------------------------------------|
6|-----------------------------------------------------------------------|


verse:
1|---------------------------------------------------------------|
2|------3-----4---3----------------------------------------------|
3|--0-0---0-0---0------------------------------------------------|x8
4|---------------------------------------------------------------|
5|---------------------------------------------------------------|
6|---------------------------------------------------------------|


solo #2:(same as # 1)


1|---------------------------------------------13^-13^-13^---------------|
2|---13^-13^-13^-11-13-11----13^-13^-13^-11-13---------------------------|
3|-----------------------------------------------------------------------|
4|-----------------------------------------------------------------------|
5|-----------------------------------------------------------------------|
6|-----------------------------------------------------------------------|

1|-9^-9^-9^-9^-9^--13^-13^-13^-13^-13^--15^-15^-17^17^-19^-21^-21^-21^---|
2|-----------------------------------------------------------------------|
3|-----------------------------------------------------------------------|
4|-----------------------------------------------------------------------|
5|-----------------------------------------------------------------------|
6|-----------------------------------------------------------------------|


1|-21^21^21^21^21^--15^15^15^15^15^--17^17^17^17^17^--11-13-11-13-13^----|
2|-----------------------------------------------------------------------|
3|-----------------------------------------------------------------------|
4|-----------------------------------------------------------------------|
5|-----------------------------------------------------------------------|
6|-----------------------------------------------------------------------|

1|------------------13^13^13^13^13^--9^9^9^9^9^--15^17^19^---------------|
2|--13^13^13^13^13^------------------------------------------------------|
3|-----------------------------------------------------------------------|
4|-----------------------------------------------------------------------|
5|-----------------------------------------------------------------------|
6|-----------------------------------------------------------------------|



END HOPE U LIKE IT!
Related for Control tab