Song name
# A B C D E F G H I J K L M N O P Q R S T U V W X Y Z

Anonymous - Greensleeves tab

                 GREENSLEEVES

e|---------0--1-0----------------------------------------------------------|
B|----1--3--------3--0-------0--1-------------0----------------------------|
G|-2--2----0------0----0--2-----2--2--2--1-2----1--------------------------|
D|---------------------0---------------------------2-----------------------|
A|----0----3--------------------0-----0------------------------------------|
E|----------------3----3----------------------0----------------------------|

e|---------0--1-0----------------------------------------------------------|
B|----1--3--------3--0-------0--1--0---------------------------------------|
G|-2--2----0------0-----0--2----2-----2--1-----1--2--2---------------------|
D|----------------------0----------------2--4-----2--2---------------------|
A|----0----3--------------------0-----------------0--0---------------------|
E|----------------3-----3----------------0---------------------------------|

e|-3----3--2-0-------------------------------------------------------------|
B|-1----1-------3--0--------0--1-------------0-----------------------------|
G|-0----0-------0-----0--2-----2--2--2--1-2-----1--------------------------|
D|--------------0-----0----------------------------2-----------------------|
A|-3----3----------------------0-----0-------------------------------------|
E|--------------3-----3----------------------0-----------------------------|

e|-3----3--2-0-------------------------------------------------------------|
B|-1----1-------3--0--------0--1--0----------------------------------------|
G|-0----0-------0-----0--2-----2-----2--1-----1--2--2----------------------|
D|--------------0-----0-----------------2--4-----2--2----------------------|
A|-3----3----------------------0-----------------0--0----------------------|
E|--------------3-----3-----------------0----------------------------------|
Tap to rate this tab
 
# A B C D E F G H I J K L M N O P Q R S T U V W X Y Z