Anonymous - Solea De Llamada tab

This is my first step of flamenco that I'm posting on ultimateguitar.com.

This name of this song is Solea de Llamada

This song is for ONLY for classical guitares,
Standard Tuning
EBGDAE

                          *Solea de Llamada 1*

1 -8--7--5--3--1--3--1--0-----0------------------------------0-------------|
2 -------------------------3-----3--1-----1--3--1----5-------5-------------|
3 -------------------------------------2------------------5----------------|
4 -7--5--3--2--0---------------------------------------5-------------------|
5 ----------------------3--2--------0-------------3------------------------|
6 -------------------------------------------------------------------------|

1 --5--3--1--0-----------------------------0-----------0-------------------|
2 --------------3--1--0-----------------0-----------0----------------------|
3 -----------------------2--1--------1-----------1-------------------------|
4 --3--3--0--------------------3--------------2----------------------------|
5 -----------3--2--0-------------------------------------------------------|
6 --------------------3--1--------0----------------------------------------|

1 --------------------------------------------------0--------------0-------|
2 -----------2--0--1--3--1--3--1--0--------------0--------------0----------|
3 --------1--------------------------1--------1--------------1-------------|
4 --3--2-----0--------------------------3--2--------------2----------------|
5 --------------2--3--------------2----------------------------------------|
6 --1--0--4--------------------------4--1--0-----------0-------------------|

I talk french and spanish (rancais & Espanol) For any other questions...

Take time to practice this tabit's pretty hard when you first start but you get used to 
This tab really depends on your fingers.
Tap to rate this tab
 
# A B C D E F G H I J K L M N O P Q R S T U V W X Y Z