Song name
# A B C D E F G H I J K L M N O P Q R S T U V W X Y Z

Anonymous - Moliendo Cafe tab

N= natural armonic        U= play chord upwards
B= bend                   D= play chord downwards  

e)---12N-13-13b-12----12N--13-13b-10------12N--13-13b-14-16-18--------------
b)--12N--------------12N-----------------12N--------------------------------
g)-12N--------------12N-----------------12N---------------------------------
d)--------------------------------------------------------------------------
a)--------------------------------------------------------------------------
e)--------------------------------------------------------------------------

e)--0-2-333-333333-3-2-0-3-0-----0-2-333-333333-3-2-0-5---2-3-5-555-555555-7
b)-0----------------------------0------------------------0------------------
g)--------------------------------------------------------------------------
d)--------------------------------------------------------------------------
a)--------------------------------------------------------------------------
e)--------------------------------------------------------------------------

                                                                       D D
e)-5-7-5-3--0-2-333333-222-3-2-0----555-7-5-7-8-7-5-7-5-8--------------7-7--
b)---------0------------------------------------------------777-878-10-7-7--
g)---------------------------------------------------------------------8-8--
d)--------------------------------------------------------------------------
a)--------------------------------------------------------------------------
e)--------------------------------------------------------------------------

     D U D 
e)-x-7-7-7------------------------------------------------------------------
b)-x-7-7-7------------------------------------------------------------------
g)-x-8-8-8------------------------------------------------------------------
d)--------------------------------------------------------------------------
a)--------------------------------------------------------------------------
e)--------------------------------------------------------------------------

Send me any corrections to notice.

Andrés Páez
Tap to rate this tab
# A B C D E F G H I J K L M N O P Q R S T U V W X Y Z