Song name
# A B C D E F G H I J K L M N O P Q R S T U V W X Y Z

Anonymous - Romanza De Amor tab

Romanza de Amor Tab with fingering.
Arranged by Kenji Sebastian

I designed this fingering so that it will be perfect
and this is also the fingering that I use.

I also arranged this song because many versions out there
does not sound good than mine.

I placed the fingering under the tab. The number is
1-index, 2-middle, 3-ring, 4-pinky.

The Roman numbers above the tab indicates the fret
which is to be barred and how long the barre should
last.

I also left out the fingerings which is very obvious.

I dedicate this tab to my family, friends, relatives
and all the guitarist in the world...

Note:

/ = slide up
\ = slide down
( ) = natural harmonic

		Romanza de Amor
		Anonymous

STANDARD TUNING

Tempo: 60BPM
With feelings

Intro:

E|-0-----0-----0-----|-0-----0-----0-----|-0-----0-----0-----|
B|---0-----0-----0---|---0-----0-----0---|---0-----0-----0---|
G|-----0-----0-----0-|-----0-----0-----0-|-----0-----0-----0-|
D|-------------------|-------------------|-------------------|
A|-------------------|-------------------|-------------------|
E|-0-----------------|-0-----------------|-0-----------------|

E|-0-----0-----0-----|
B|---0-----0-----0---|
G|-----0-----0-----0-|
D|-------------------|
A|-------------------|
E|-0-----------------|


Part 1:

E||7-----7-----7-----|-7-----5-----3-----|-3-----2-----0-----|
B||--0-----0-----0---|---0-----0-----0---|---0-----0-----0---|
G||----0-----0-----0-|-----0-----0-----0-|-----0-----0-----0-|
D||------------------|-------------------|-------------------|
A||------------------|-------------------|-------------------|
E||0-----------------|-0-----------------|-0-----------------|

   4                         2  \  2             1
~~~~~~~~~~~~~~~~~~~~~~~~~~~~~~~~~~~~~~~~~~~~~~~~~~~~~~~~~~~~~

E|-0-----3-----7-----|-12----12----12----|-12----10----8-----|
B|---0-----0-----0---|---0-----0-----0---|---0-----0-----0---|
G|-----0-----0-----0-|-----0-----0-----0-|-----0-----0-----0-|
D|-------------------|-------------------|-------------------|
A|-------------------|-------------------|-------------------|
E|-0-----------------|-0-----------------|-0-----------------|

         1  /  1       4                         2     4
~~~~~~~~~~~~~~~~~~~~~~~~~~~~~~~~~~~~~~~~~~~~~~~~~~~~~~~~~~~~~

   V. . . . . . . . . . . . . . . . . . . VII. . . . . . . . .

E|-8-----7-----5-----|-5-----7-----8-----|-7-----8-----7-----|
B|---5-----5-----5---|---5-----5-----5---|---7-----7-----7---|
G|-----5-----5-----5-|-----5-----5-----5-|-----8-----8-----8-|
D|-------------------|-------------------|-------------------|
A|-------------------|-------------------|-------------------|
E|-5-----------------|-5-----------------|-7-----------------|

   4     3                                     2 3
~~~~~~~~~~~~~~~~~~~~~~~~~~~~~~~~~~~~~~~~~~~~~~~~~~~~~~~~~~~~~

   VII. . . . . . . .

E|-11----8-----7-----|-7-----5-----3-----|-3-----2-----0-----|
B|---7-----7-----7---|---0-----0-----0---|---0-----0-----0---|
G|-----8-----8-----8-|-----0-----0-----0-|-----0-----0-----0-|
D|-------------------|-------------------|-------------------|
A|-------------------|-------------------|-------------------|
E|-7-----------------|-0-----------------|-0-----------------|

   4
~~~~~~~~~~~~~~~~~~~~~~~~~~~~~~~~~~~~~~~~~~~~~~~~~~~~~~~~~~~~~

E|-2-----2-----2-----|-2-----3-----2-----|-0-----0-----0-----|
B|---0-----0-----0---|---0-----0-----0---|---0-----0-----0---|
G|-----2-----2-----2-|-----2-----2-----2-|-----0-----0-----0-|
D|-------------------|-1-----------------|-2-----------------|
A|-2-----------------|-------------------|-------2-----------|
E|-------------------|-------------------|-------------3-----|

   3   2               3     4             1     2     3
   1                   1
~~~~~~~~~~~~~~~~~~~~~~~~~~~~~~~~~~~~~~~~~~~~~~~~~~~~~~~~~~~~~

E|-0----------------||
B|-0----------------||
G|-0----------------||
D|------------------||
A|------------------||
E|-0----------------||

~~~~~~~~~~~~~~~~~~~~~~~~~~~~~~~~~~~~~~~~~~~~~~~~~~~~~~~~~~~~~

Part 2:

					   II. . . . . . . .

E||4-----4-----4-----|-4-----2-----0-----|-------------------|
B||--0-----0-----0---|---0-----0-----0---|-5-----4-----4-----|
G||----1-----1-----1-|-----1-----1-----1-|---2-----2-----2---|
D||------------------|-------------------|-----4-----4-----4-|
A||------------------|-------------------|-------------------|
E||0-----------------|-0-----------------|-2-----------------|

   4                         2             4  \  4
   1                                           3
~~~~~~~~~~~~~~~~~~~~~~~~~~~~~~~~~~~~~~~~~~~~~~~~~~~~~~~~~~~~~

   II. . . . . . . .   VII. . . . . . . . . . . . . . . . . .

E|-------------------|-9-----9-----9-----|-9-----11----9-----|
B|-4-----3-----4-----|---7-----7-----7---|---7-----7-----7---|
G|---2-----2-----2---|-----8-----8-----8-|-----8-----8-----8-|
D|-----4-----4-----4-|-------------------|-------------------|
A|-------------------|-------------------|-------------------|
E|-2-----------------|-7-----------------|-7-----------------|

   4     2             3   2                     4
~~~~~~~~~~~~~~~~~~~~~~~~~~~~~~~~~~~~~~~~~~~~~~~~~~~~~~~~~~~~~

                                           IX. . . . . . . . .

E|-9-----7-----7-----|-7-----9-----11----|-12----12----12----|
B|---9-----9-----9---|---9-----9-----9---|---9-----9-----9---|
G|-----9-----9-----9-|-----9-----9-----9-|-----9-----9-----9-|
D|-------------------|-------------------|-------------------|
A|-------------------|-------------------|-------------------|
E|-0-----------------|-0-----------------|-0-----------------|

   4 3 2 1                         4       4
~~~~~~~~~~~~~~~~~~~~~~~~~~~~~~~~~~~~~~~~~~~~~~~~~~~~~~~~~~~~~

 . . . . . . . . . .   V. . . . . . . . . . . . . . . . . . .

E|-12----11----10----|-9-----9-----9-----|-9-----7-----5-----|
B|---9-----9-----9---|---5-----5-----5---|---5-----5-----5---|
G|-----9-----9-----9-|-----6-----6-----6-|-----6-----6-----6-|
D|-------------------|-------------------|-------------------|
A|-------------------|-------------------|-------------------|
E|-0-----------------|-5-----------------|-5-----------------|

         3     2       4   2                     3
~~~~~~~~~~~~~~~~~~~~~~~~~~~~~~~~~~~~~~~~~~~~~~~~~~~~~~~~~~~~~

   II. . . . . . . . . . . . . . . . . .

E|-4-----4-----4-----|-4-----5-----2-----|-0-----0-----0-----|
B|---4-----4-----4---|---4-----4-----4---|---0-----0-----0---|
G|-----2-----2-----2-|-----2-----2-----2-|-----1-----1-----1-|
D|-------------------|-------------------|-2-----------------|
A|-2-----------------|-2-----------------|-------2-----------|
E|-------------------|-------------------|-------------4-----|

   4 3                       4             2   1 3     4
~~~~~~~~~~~~~~~~~~~~~~~~~~~~~~~~~~~~~~~~~~~~~~~~~~~~~~~~~~~~~

E|-0----------------||
B|-0----------------||
G|-1----------------||
D|------------------||
A|------------------||
E|-0----------------||

   1
~~~~~~~~~~~~~~~~~~~~~

Play before every start of Part 1:
(except the first Part 1)

E|-------------------|
B|-0-----------------|
G|-------------------|
D|-------------------|
A|-------------------|
E|-------------------|

Play before every start of Part 2:

E|-------------------|
B|-0---0-------------|
G|-------------------|
D|-------------------|
A|-------------------|
E|-------------------|


PLAY:

 Intro
 Part 1
 Part 1
 Part 2
 Part 2
 Part 1
 Finish.

UPDATE:

I changed the fingering of 9th and 10th measure of the 2nd part because
it is not possible with short and not reflexive fingers. You can also add some harmonics 
the finishing part to add effects.

E|--(12)--(9)--|--(7)--(5)--||
B|--(12)--(9)--|--(7)--(5)--||
G|--(12)--(9)--|--(7)--(5)--||
D|-------------|------------||
A|-------------|------------||
E|-------------|------------||

            #===============#
            #Kenji Sebastian#
            #===============#

                        "Impossible is a word
                         only to be found in the
                         dictionary of fools..."
Tap to rate this tab
# A B C D E F G H I J K L M N O P Q R S T U V W X Y Z