Song name
# A B C D E F G H I J K L M N O P Q R S T U V W X Y Z

Anonymous - Spanish Study tab

Anonymous - Spanish Study  Arranged by Frederick M. Noade                                 

|-----0-----0-----0-----0-----0-----0--|-----0-----0-----0-----0-----0-----0--|
|--------------------------------------|--------------------------------------|
|--------------------------------------|--------------------------------------|
|--------2-----3-----0-----2-----------|--------2-----3-----0-----2-----------|
|--0-----------------------------3-----|--0-----------------------------3-----|
|--------------------------------------|--------------------------------------|

|-----0-----0-----0-----0-----0-----0--|-----0-----0-----0-----0-----0-----0--|
|--------------------------------------|--------------------------------------|
|--------------------------------------|--------------------------------------|
|--0-----------------0-----------------|--------2-----3-----0-----2-----------|
|--------2-----3-----------2-----3-----|--0-----------------------------3-----|
|--------------------------------------|--------------------------------------|
  
|-----0-----0-----0-----0-----0-----0--|-----0-----0-----0-----0-----0-----0--|
|--------------------------------------|--------------------------------------|
|--------------------------------------|--------------------------------------|
|--------2-----3-----0-----2-----------|--------2-----3-----0-----2-----------|
|--0-----------------------------3-----|--0-----------------------------3-----|
|--------------------------------------|--------------------------------------|
 
|-----0-----0-----0-----0-----0-----0--|--0-------0-----0-----0-----0-----0---|
|--------------------------------------|--0-----------------------------------|
|--------------------------------------|--1-----------------------------------|
|--0-----------------------------------|--2----2-----3-----0-----2------------|
|--------2-----3-----0-----------------|--2----------------------------2------|
|--------------------------3-----1-----|--0-----------------------------------|
 
|-----0-----0-----0-----0-----0-----0--|-----0-----0-----0-----0-----0-----0--|
|--------------------------------------|--------------------------------------|
|--------------------------------------|--------------------------------0-----|
|--------2-----3-----0-----2-----------|--------------0-----2-----3-----------|
|--------------------------------2-----|--------2-----------------------------|
|--0-----------------------------------|--0-----------------------------------|
   
|-----0-----0-----0-----0-----0-----0--|-----0-----0-----0-----0-----0-----0--|
|--------------------------------------|--------------------------------------|
|--------------------------------------|--------------------------------------|
|--2-----3-----0-----2-----------------|--------2-----3-----0-----2-----------|
|--------------------------3-----2-----|--------------------------------2-----|
|--------------------------------------|--0-----------------------------------|
  
|-----0-----0-----0-----0-----0-----0--|-----0-----0-----0-----0-----0-----0--|
|--------------------------------------|--------------------------------------|
|--------------------------------------|--------------------------0-----------|
|--------2-----3-----0-----2-----------|--------0-----2-----3-----------2-----|
|--------------------------------2-----|--------------------------------------|
|--0-----------------------------------|--0-----------------------------------|
  
|-----0-----0-----0-----0-----0-----0--|
|--------------------------------------|
|--------------------------------------|
|--3-----0-----2-----------0-----------|
|--------------------3-----------2-----|
|--------------------------------------|

|--------0--------0--------0--------0--------0--------0--|
|--------------------------------------------------------|
|-----2--------2--------2--------2--------2--------2-----|
|-----------2--------3--------0--------2-----------------|
|--0--------------------------------------------3--------|
|--------------------------------------------------------|

|--------0--------0--------0--------0--------0--------0--|
|--------------------------------------------------------|
|-----2--------2--------2--------2--------2--------2-----|
|-----------2--------3--------0--------2-----------------|
|--0--------------------------------------------3--------|
|--------------------------------------------------------|

|--------0--------0--------0--------0--------0--------0--|
|--------------------------------------------------------|
|-----2--------2--------2--------2--------2--------2-----|
|-----------2--------3--------0--------2-----------------|
|--0--------------------------------------------3--------|
|--------------------------------------------------------|
  
|--------0--------0--------0--------0--------0--------0--|
|--------------------------------------------------------|
|-----2--------2--------2--------2--------2--------2-----|
|--0--------------------------0--------------------------|
|-----------2--------3-----------------2--------3--------|
|--------------------------------------------------------|
 
|--------0--------0--------0--------0--------0--------0--|
|--------------------------------------------------------|
|-----2--------2--------2--------2--------2--------2-----|
|-----------2--------3--------0--------2-----------------|
|--0--------------------------------------------3--------|
|--------------------------------------------------------|
  
|--------0--------0--------0--------0--------0--------0--|
|--------------------------------------------------------|
|-----2--------2--------2--------2--------2--------2-----|
|-----------2--------3--------0--------2-----------------|
|--0--------------------------------------------3--------|
|--------------------------------------------------------|

|--------0--------0--------0--------0--------0--------0--|
|--------------------------------------------------------|
|-----------2--------3--------0--------2-----------------|
|--0--------------------------------------------3--------|
|--------------------------------------------------------|
    
|--------0--------0--------0--------0--------0--------0--|
|--------------------------------------------------------|
|-----2--------2--------2--------2--------2--------2-----|
|--0-----------------------------------------------------|
|-----------2--------3--------0--------------------------|
|--------------------------------------3--------1--------|
Tap to rate this tab
 
# A B C D E F G H I J K L M N O P Q R S T U V W X Y Z