Song name
# A B C D E F G H I J K L M N O P Q R S T U V W X Y Z

Anorimoi - Kariola tab

			     KARIOLA-ANORIMOI
-------------------------------------------------------------------------------
Tabbed by:LESPAULAKIAS11
Email:lespaulakias11@yahoo.gr

Tuning:standard
    kariooooolaaaaaaaaaaaaaaaa
e|--------------------|----------------------------------------|-----------------|
B|--------------------|----------------------------------------|------------------|
G|--------------------|----------------------------------------|------------------|
D|--------------------|----------------------------------------|------------------|
A|--5h7------------7--|-14h15------12h14-----10h12----9h10-----|-5h7---------7----|
E|------0-0-0-0-0--5--|--------0-0-------0-0-------0-0-----0-0-|-----0-0-0-0-5----|

e|------------------|-----------------|----------------------------------------|
B|------------------|-----------------|----------------------------------------|
G|------------------|-----------------|----------------------------------------|
D|------------------|-----------------|----------------------------------------|
A|-3--2--0--2--0--2-|--5h7----------7-|--14h15-----12h14----10h12-----9h10-----|
E|-3--2--0--2--0--2-|------0-0-0-0--5-|--------0-0-------0-0------0-0------0-0-|

e|-----------------|---------------|----------|----|-------|-------------|
B|-----------------|---------------|----------|----|-------|-------------|
G|-----------------|---------------|----------|----|-------|-------------|
D|-----------------|---------------|----------|----|-------|-------------|
A|-5h7-----------7-|--3-2-0-2-0--2-|--2-----9-|-9--|-2---9-|--10-2--2--2-|
E|-----0-0-0-0-0-5-|--3-2-0-2-0--2-|--0-------|-7--|-0-----|--8--0--0--0-|


e|--------|--------|----------|-----|
B|--------|--------|----------|-----|
G|--------|--------|--4-------|-----|
D|--------|--7---5-|--5-------|--4--|
A|--2--9--|--5-----|--3---0h2-|--2--|
E|--0-----|--------|----------|-----|
ok nato to epos i esto to intro tou opoios thelei kai to ypoloipo as mou stelei email. 
THE WEBSITE OF THE GREAT BAND IS www.anorimoi.com
===============================================================================
Tap to rate this tab
# A B C D E F G H I J K L M N O P Q R S T U V W X Y Z