Guitaretab - guitar tabs
Song name
# A B C D E F G H I J K L M N O P Q R S T U V W X Y Z

Another Animal - Blind tab

(I've missed few things in the previous one, please submit this one)

Artist: Another Animal
Song: Blind
Tabbed By: Plamen Todorov

***** - slide with your pick's edge back & forward on open string - should sound 
something like a turn-table scratch

(2x) -->

E |------------------------------------------------|
B |------------------------------------------------|
C |------------------------------------------------|
D |------------------------------------------------|
A |---0--4-4--5----0--4-4--5----4-4------*****-----|
E |---0--2-2--3----0--2-2--3----2-2----------------|
[ Tab from: http://www.guitaretab.com/a/another-animal/183202.html ]
                                  (pm)      (pm)
E |------------------------------------------------|
B |------------------------------------------------|
C |------------------------------------------------|
D |------------------------------------------------|
A |---0--4-4--5----0--4-4-0------7-0-------5-0-----|
E |---0--2-2--3----0--2-2-0------5-0-------3-0-----|

--------

(2x) -->
Palm Mute all, except (o) marks

E |------------------------------------------------|
B |------------------------------------------------|
C |------------------------------------------------|
D |------------------------------------------------|
A |---0--4-4--5----0--4-4--5----4-4------*****-----|
E |---0--2-2--3----0--2-2--3----2-2----------------|

                                (o)(pm)   (o)(pm)
E |------------------------------------------------|
B |------------------------------------------------|
C |------------------------------------------------|
D |------------------------------------------------|
A |---0--4-4--5----0--4-4-0------7-0-------5-0-----|
E |---0--2-2--3----0--2-2-0------5-0-------3-0-----|

I would like to see more tabs from this album made by professionals. 
Related for Blind tab