Guitaretab - guitar tabs
Song name
# A B C D E F G H I J K L M N O P Q R S T U V W X Y Z

Anouk - Margarita Chum tab

Anouk - Margarita chum / Graduated Fool

Tabbed By Paul Hoogland

I made this for 1 guitar to play, also added some bass tones.
Listen to the song and you will be ok.

capo on 1st

intro:Riff1

E||--33-5-3-0------|--33-5-3-0------|
B||--33-5-3-0--3h5-|--33-5-3-0--3h5-|
G||------------0---|----------------|
D||----------------|------------0---|
A||3---------------|3---------------|
E||----------------|----------------|

   Riff2
E||----------------|--33-5-3-0------|2x
B||----------------|--33-5-3-0--3h5-|
G||------0---------|------------0---|
D||----------------|----------------|
A||---2--------3---|----------------|
E||0---------------|3---------------|

Here, if its any consolation,
take mine
No, no need for explanations,
its alright

riff3:
  Asus2      Cadd9      G          D          Cadd9      Em         G          D         
Asus2
E|--0---0---|----------|----------|----------|----------|--0---0---|----------|---------|-0-------|
B|----------|--3---3---|--3---3---|--3---3---|--3---3---|0---0-----|--3---3---|--3---3--|-0-------|
G|----------|----------|----------|2---2-----|----------|----------|----------|2---2----|-2-------|
D|2---2-----|2---2-----|0---0-----|----------|2---2-----|----------|0---0-----|---------|-2-------|
A|----------|----------|----------|----------|----------|----------|----------|---------|-0-------|
E|----------|----------|----------|----------|----------|----------|----------|---------|---------|

Take Mine..
With me it would only be redundant, see
If you only try to keep it all inside
I lay me down with your decision
Blow your mind, dont hesitate
This devil takes your pain away
Take mine
[ Tab from: http://www.guitaretab.com/a/anouk/108038.html ]
Riff4
E||--33-5-3-0------|--33-5-3-0------|2x
B||--33-5-3-0--3h5-|--33-5-3-0--3h5-|
G||------------0---|----------------|
D||----------------|------------0---|
A||3---------------|----------------|
E||----------------|3---------------|

But now that I have finally found you
Im gonna take it one step at a time
Lets try keep this good thing going
You tell a joke, I nearly die
We have to laugh until we cry

Chord are like this:
Asus2   Cadd9
-0------3------|
-0------3------|
-2------0------|
-2------2------|
-0------3------|
---------------|

Asus2                  Asus2           Cadd9
Take mine, please take miiiiiiiiiiiiiiine

F#M7aDD1 look like this

---2---------------|
---2---------------|
---4---------------|
---4---------------|
---2---------------|
---2---------------|

Chorus
G				    F#M7add11
my margarita chum, that's what you are
        em
I'm laughing my ass off when you sing
Cadd9
everybody's happy now
      G				F#M7add11
the Luna-queens become the lunatics
          em
while Janis Joplin tells her friend
        Cadd9
he's just a one-night stand

1x
E||--33-5-3-0------|
B||--33-5-3-0--3h5-|
G||------------0---|
D||----------------|
A||----------------|
E||----------------|


Riff2 2x
I hear you retching in my bathroom, but I dont mind
No, Ill clean it up tomorrow, just sit down

riff3
Again you choke me when you grumble
You and me were so much like rg
And now Ill show you how to tango
I think its time for us to say       Asus2
That this has been a prefect day and

Asus2    Assu2        Cadd9    Cadd9
retir----e,    please reeeetiiiire

Cadd9
please retire

Chorus:

My margarita chum thats what you are
Im laughing my ass of when you sing
Everybodys happy now
A v.i.p is what you are to me
I love it when you take me on your lonely sunday stroll

Outro same as chorus, strumming. 4x

Got a 2cnd guitar @ the end doing some solo kind of thing, but cba to look at it.


My first tab.
I got some chords from the acoustic version I could find, tabbed by Marnus van der Merwe.
I think its close:)
pls comment.
Related for Margarita Chum tab
×
Best way to learn
"Margarita Chum"