Song name
# A B C D E F G H I J K L M N O P Q R S T U V W X Y Z

Anouk - Our Own Love tab

Our Own Love
Anouk

Tuned Standard


Intro:

   Bb  Eb     Gm             Eb     Bb         Eb     Gm 
e|--------------------------------|-------5-6------------------------------|
B|-6--6s8-6------8----8----8------|-6-6-6-----6s8-6------------------------|
G|----------8-7-7--5-5------------|-----------------8-7--3/5-3-------------|
D|----------------------8-8--5-3--|----------------------------3-3/5-3-----|
A|------------------------------6-|------------------------------------6-5-|
E|--------------------------------|----------------------------------------|

Verse 1:
     Bb                              Eb
Im watching your shadow cut by the moon 
 Gm                           Eb
Peaceful I wait for the dawn 
      Bb                                 Eb
These moments in silence are all that I need 
     Gm                        
The softness of hearing you breathe 

Pre-Chorus:
   Cadd9 
And I know it doesnt get better than this 
   Eb
Funny it starts with just one little kiss

Chorus:
 Bb   F    Eb                    Gm
Baby all I know youre no longer alone 
        F        Eb
Weve started a home of our own love 
Bb      F       Eb                      Gm   F   Eb
All my love is yours, youre no longer alone 
                 Gm   F   Eb
We've started a home

Of our own love

   Bb  Eb     Gm                       
e|----------------------------------|
B|-6--6s8-6------8----8----8--------|
G|----------8-7-7--5-5--------------|
D|----------------------8-8--5-3----|
A|------------------------------6-5-|
E|----------------------------------|

Verse 2:
Your ups and your downs, powers and fears
Your presence fulfils my desire
You're all that I've wished for
You're more than I need, you're right where I wanna be

Pre-Chorus:
Oh no, I don't ask questions or try to explain
Telling myself it just happens this way

Chorus:
Baby all I know you're no longer alone
We've started a home of our own love
All my love is yours, you're no longer alone
We've started a home
Of our own love

[Repeat Intro]

Pre-Chorus:
I don't ask questions or try to explain
Telling myself it just happens this way

Chorus:
Baby all I know you're no longer alone
We've started a home of our own love
All my love is yours, you're no longer alone

Baby all I know you're no longer alone
We've started a home of our own love
All my love is yours, you're no longer alone

Baby all I know you're no longer alone
Baby all I know you're no longer alone
We've started a home
of our own love

   Bb  Eb       Gm                       
e|--------------3-|
B|-6--6s8-6-----3-|
G|----------8-7-3-|
D|--------------5-|
A|--------------5-|
E|--------------3-|

Enjoy!
Tap to rate this tab
# A B C D E F G H I J K L M N O P Q R S T U V W X Y Z