Song name
# A B C D E F G H I J K L M N O P Q R S T U V W X Y Z

Anouk - If I Go tab

ARTIST: ANOUK
SONG: IF I GO
ALBUM: WHO’S YOUR MOMMA (2007)

Standard tuning (E A D G B E)


Intro/Verse:

E --------------------|
B --------------------|
G --------------------|   repeat this until pre-chorus.
D -0-2-2-0-7-5--------|
A -0-2-2-0-7-5--------|
E --------------------|


Pre-Chorus:

-------------------------|   
-------------------------|   
-------------------------|   
-555555552222222222222222|   
-333333330000000022222222|   
-------------------------| x3

------------|
------------|
------------|
-55555555-2-|
-33333333-0-|
------------|

Chorus:

-----------------------------------------------------------------------------------|
-----------------------------------------------------------------------------------|
-----------------------------------------------------------------------------------|
5555555522222222-0-2-2-0-7-5--0-2-2-0-7-5--5555555522222222-2222222255555555-------|
3333333300000000-0-2-2-0-7-5--0-2-2-0-7-5--3333333300000000-2222222255555555-------|
-----------------------------------------------------------------------------------|  

---------------------------------------------------------------------------|
---------------------------------------------------------------------------|
---------------------------------------------------------------------------|
5555555522222222-0-2-2-0-7-5--0-2-2-0-7-5--55555555222222227777777777777777|
3333333300000000-0-2-2-0-7-5--0-2-2-0-7-5--33333333000000005555555555555555|
---------------------------------------------------------------------------|

Verse:

--------------------|
--------------------|
--------------------|  
-0-2-2-0-7-5--------|
-0-2-2-0-7-5--------|
--------------------|  x12


And then again the pre-chorus:

-------------------------|   
-------------------------|   
-------------------------|   
-555555552222222222222222|   
-333333330000000022222222|   
-------------------------| x3

------------|
------------|
------------|
-55555555-2-|
-33333333-0-|
------------|



Chorus:

-----------------------------------------------------------------------------------|
-----------------------------------------------------------------------------------|
-----------------------------------------------------------------------------------|
5555555522222222-0-2-2-0-7-5--0-2-2-0-7-5--5555555522222222-2222222255555555-------|
3333333300000000-0-2-2-0-7-5--0-2-2-0-7-5--3333333300000000-2222222255555555-------|
-----------------------------------------------------------------------------------|  

---------------------------------------------------------------------------|
---------------------------------------------------------------------------|
---------------------------------------------------------------------------|
5555555522222222-0-2-2-0-7-5--0-2-2-0-7-5--55555555222222227777777777777777|
3333333300000000-0-2-2-0-7-5--0-2-2-0-7-5--33333333000000005555555555555555|
---------------------------------------------------------------------------|

-----------------------------------------------------------------------------------|
-----------------------------------------------------------------------------------|
-----------------------------------------------------------------------------------|
5555555522222222-0-2-2-0-7-5--0-2-2-0-7-5--5555555522222222-2222222255555555-------|
3333333300000000-0-2-2-0-7-5--0-2-2-0-7-5--3333333300000000-2222222255555555-------|
-----------------------------------------------------------------------------------|  x2

---------------------------------------------------------------------------|
---------------------------------------------------------------------------|
---------------------------------------------------------------------------|
5555555522222222-0-2-2-0-7-5--0-2-2-0-7-5--55555555222222227777777777777777|
3333333300000000-0-2-2-0-7-5--0-2-2-0-7-5--33333333000000005555555555555555|
---------------------------------------------------------------------------|

Outro:

--------------------|
--------------------|
--------------------|   
-0-2-2-0-7-5--------|
-0-2-2-0-7-5--------|
--------------------| x12


This is my first tab, I hope you can use it. If there’s something wrong, comment please!
Tap to rate this tab
# A B C D E F G H I J K L M N O P Q R S T U V W X Y Z