Anouk - Time Is A Jailer tab

Time is jailor    anouk
Bij heuckeroth uut daam


INTRO  
e|----------3-2--|-2h3p2p0----0-------|--------------|--------------------|
B|----3-h5-------|------------0-------|--------1-----|------1------1------|
G|---------------|------------0-------|------2---2---|----2------2--------|
D|---------------|------------2-------|---3--------3-|--------------------|
A|--0------------|------------2-------|--------------|--------------------|
E|---------------|------------0-------|-1------------|-2-------1----------|
  E
e|---------------|
B|-------0-------|
G|-----1---1-----|
D|---2-------2---|
A|---------------|
E|-0-------------|

VERSE  
e|--------------|-------------|-------------|-------------------|
B|-------1------|-------1-----|-------1-----|-----1-------------|
G|-----2---2----|-----2---2---|-----0---0---|---2-----------2---|
D|---2-------2--|---3-------3-|---2-------2-|-1-----------4-----|
A|-0------------|-------------|-3-----------|-------1-/-2-------|
E|--------------|-1-----------|-------------|-------------------|



e|-------------------------------------------|
B|-----------0-------------------------------|
G|--------1-----1---------------1------------|
D|-----0-----------0----------0----0---------|
A|--2----------------------2----------2------|
E|---------------------0---------------------|


E|-------------|-------------------|
B|-------1-----|-2--3--5--2--------|
G|-----2---2---|----2--6-----------|
D|---2-------2-|-2--3--5--2--------|
A|-0-----------|-------------------|
E|-------------|-------------------|
         
e|--------1------|-------3-----|-------------|-------------------|
B|------3---3----|-----3---3---|-------1-----|-------0-----------|
G|----2-------2--|---0-------0-|-----0---0---|-----1---1---------|
D|--0------------|-------------|---2-------2-|---2-------2-------|
A|---------------|-------------|-3-----------|-------------------|
E|---------------|-3-----------|-------------|-0-----------------|
         
e|--------------------------------------------------------------|
B|-----1------1-----------------------0h1-----------------------|
G|---2------2--------1-------1------2-----2----------1----------|
D|-----------------2-------2------2---------2------0---0--------|
A|-----------------------2------0----------------2-------2------|
E|-2------1-----0------------------------------0----------------|


BRAKE
e|------------------|----------------|-1-------------|---------------------|
B|-1----------------|-1--------------|-3-------------|---------------------|
G|-2----------------|-2--------------|-2-------------|-1-------------------|
D|-2----------------|-1--------------|---------------|-2-------------------|
A|-3----------------|-3--------------|---------------|-2-------------------|
E|------------------|----------------|---------------|---------------------|


Solo   (not exact at the ending)

e|--------------12---13-----------------------1012B13B12-----------------|
B|-------12-13-------------17B15----16-----12---------------15H17P15P13---|
G|----14-------------------------12---------------------------------------|
D|------------------------------------------------------------------------|
A|------------------------------------------------------------------------|
E|------------------------------------------------------------------------|


e|-----------17-------------------------------------------12--13-15-15B17-|
B|15B17---15B17------15--13-12-------------------12-13-15-----------------|
G---------------------------------14-12----12--14-------------------------|
D|------------------------------------------------------------------------|
A|------------------------------------------------------------------------|
E|------------------------------------------------------------------------|
Tap to rate this tab
 
# A B C D E F G H I J K L M N O P Q R S T U V W X Y Z