Song name
# A B C D E F G H I J K L M N O P Q R S T U V W X Y Z

Anouk - Michel tab

song name: michel
artist:Anouk

Tabbed by: roe B.

********************
**capo on the 1th **
********************

D#=[6 6 8 8 8 6]
AB=[4 6 6 5 4 4]
R= [6 8 8 7 6 6]                           R(chord)

                                |   6    |    7    |    8    |
                             ====================================
                            |  e|-------|---------|---------|  |
                            |                                   |
                            |  b|-------|---------|---------|  |
                            |                                   |
                            |  g|-------|--------|---------|  |
                            |                                   |
                            |  d|-------|---------|--------|  |
                            |                                   |
                            |  a|-------|---------|--------|  |
                            |                                   |
                            |  e|-------|---------|---------|  |
                            |___________________________________|
                                            6th


 Intro:
e|-------0------------0------------0------------0-----|
B|-4---4---4----4---4---4----4---4---4----4---4---4---|
G|---3-------3----3-------3----3-------3----3-------3-|
D|----------------------------------------------------|
A|----------------------------------------------------|
E|----------------------------------------------------|

 Verse1
e|--------0-----------0-----------0-----0------0------|
B|------4---4-------4---4-------4---4-----4------4----|
G|----3-------3---3-------3---3-------3-----3------3--|
D|--0-------------------------------------------------|
A|--------------0-------------------------------------|
E|--------------------------4-------------------------|


 Verse2
e|--------0-----------0-----------0-----0------0------|
B|------4---4-------4---4-------4---4-----4------4----|
G|----3-------3---3-------3---3-------3-----3------3--|
D|--0-------------------------------------------------|
A|--------------0-------------------------------------|
E|--------------------------4-------------------------|


 Verse3\\Hey michel, how's life are you ok?
e|--------0-----------0-----------0-----0------0------|
B|------4---4-------4---4-------4---4-----4------4----|
G|----3-------3---3-------3---3-------3-----3------3--|
D|--0-------------------------------------------------|
A|--------------0-------------------------------------|
E|--------------------------4-------------------------|


 Verse4\\I wonder if you ever think of me.
e|--------0-----------0-----------0-----0------0------|
B|------4---4-------4---4-------4---4-----4------4----|
G|----3-------3---3-------3---3-------3-----3------3--|
D|--0-------------------------------------------------|
A|--------------0-------------------------------------|
E|--------------------------4-------------------------|

 Verse5\\It's been 9 years since that kiss,
e|--------0-----------0-----------0-----|
B|------4---4-------4---4-------4---4---|
G|----3-------3---3-------3---3-------3-|
D|--0-----------------------------------|
A|--------------0-----------------------|
E|--------------------------4-----------|
    I can help but reminisce,
e|--------0-----------0-----------0-----|
B|------4---4-------4---4-------4---4---|
G|----3-------3---3-------3---3-------3-|
D|--0-----------------------------------|
A|--------------0-----------------------|
E|--------------------------4-----------|
  Hey michel do you remember.
e|--------0-----------0-----------0----|
B|------4---4-------4---4-------4---4--|
G|----3-------3---3-------3---3-------3|
D|--0----------------------------------|
A|--------------0----------------------|
E|--------------------------4----------|


Chorus:
   D#                            R                    Ab
We walked the street to the beat hand in hand you and me
D#                            R                    Ab
Smiling faces so in love hoping that they all could see
     D#                          R              Ab
That we belong together, you and me against the world
     D#              R                                 Ab
But we found out the hard way, guess it wasn't mend to be
Intro
Now it's you and her I see

Verse
You were my first and worst love
And so it only could go wrong
But ain't that just the way you learn
Hey michel I just wanted to let you know
That someone else has stolen my heart
And now another girl has caught your eye
That doesn't mean I don't think of you
I am just hoping that she'll treat you right
Do you remember

Chorus:
   D#                            R                    Ab
We walked the street to the beat hand in hand you and me
D#                       R                          Ab
Smiling faces so in love hoping that they all could see
     D#                          R              Ab
That we belong together, you and me against the world
    D#               R                                 Ab
But we found out the hard way, guess it wasn't mend to be
Intro
Now it's you and her I see

It was just a silly dream
Lalalalalalala
Lalalalalalala
Lalalalalalala
Hey michel do you remember
Tap to rate this tab
 
# A B C D E F G H I J K L M N O P Q R S T U V W X Y Z