Song name
# A B C D E F G H I J K L M N O P Q R S T U V W X Y Z

Anouk - Lost tab

Intro:
     G(5)                       D/F#
e |--------------------------------------------------------|
B |-------3------------3------------3------------3---------|
G |-----0---0--------0---0--------2---2--------2---2-------|
D |---0-------0----0-------0----0-------0----0-------0-----|
A |--------------------------------------------------------|
E |-3------------3------------2------------2---------------|

     Cadd9                     D/F#
e |--------------------------------------------------------|
B |--------3------------3------------3-----3---------------|
G |------0---0--------0---0--------2---2-------------------|
D |----2-------2----2-------2----0-------0-----------------|
A |--3------------3----------------------------------------|
E |----------------------------2---------------------------|

   Couplet:

  G(5)                      D/F#
e |--------------------------------------------------------|
B |-------3------------3------------3------------3---------|
G |-----0---0--------0---0--------2---2--------2---2-------|
D |---0-------0----0-------0----0-------0----0-------0-----|
A |--------------------------------------------------------|
E |-3------------3------------2------------2---------------|

     Cadd9                     D/F#
e |--------------------------------------------------------|
B |---------3------------3------------3------------3-------|
G |-------0---0--------0---0--------2---2--------2---2-----|
D |----0h2------2----2-------2----0-------0----0-------0---|
A |--3-------------3---------------------------------------|
E |-----------------------------2-------------2------------|

   G(5)                      D/F#
e |--------------------------------------------------------|
B |-------3------------3------------3------------3---------|
G |-----0---0--------0---0--------2---2--------2---2-------|
D |---0-------0----0-------0----0-------0----0-------0-----|
A |--------------------------------------------------------|
E |-3------------3------------2------------2---------------|

     Cadd9                     D/F#
e |--------------------------------------------------------|
B |--------3------------3------------3------------3--------|
G |------0---0--------0---0--------2---2--------2---2------|
D |----2-------2----2-------2----0-------0----0-------0----|
A |--3------------3----------------------------------------|
E |----------------------------2------------2--------------|

   Refrain:

  G(5)                      D/F#
e |--------------------------------------------------------|
B |-------3------------3------------3------------3---------|
G |-----0---0--------0---0--------2---2--------2---2-------|
D |---0-------0----0-------0----0-------0----0-------0-----|
A |--------------------------------------------------------|
E |-3------------3------------2------------2---------------|

     Cadd9                     D/F#
e |--------------------------------------------------------|
B |---------3------------3------------3------------3-------|
G |-------0---0--------0---0--------2---2--------2---2-----|
D |----0h2------2----2-------2----0-------0----0-------0---|
A |--3-------------3---------------------------------------|
E |-----------------------------2-------------2------------|

   Couplet:
   
     G(5)                      D/F#
e |--------------------------------------------------------|
B |-------3------------3------------3------------3---------|
G |-----0---0--------0---0--------2---2--------2---2-------|
D |---0-------0----0-------0----0-------0----0-------0-----|
A |--------------------------------------------------------|
E |-3------------3------------2------------2---------------|

     Cadd9                     D/F#
e |--------------------------------------------------------|
B |---------3------------3------------3------------3-------|
G |-------0---0--------0---0--------2---2--------2---2-----|
D |----0h2------2----2-------2----0-------0----0-------0---|
A |--3-------------3---------------------------------------|
E |-----------------------------2-------------2------------|

     G(5)                      D/F#
e |--------------------------------------------------------|
B |-------3------------3------------3------------3---------|
G |-----0---0--------0---0--------2---2--------2---2-------|
D |---0-------0----0-------0----0-------0----0-------0-----|
A |--------------------------------------------------------|
E |-3------------3------------2------------2---------------|

     Cadd9                     D/F#
e |--------------------------------------------------------|
B |---------3------------3------------3------------3-------|
G |-------0---0--------0---0--------2---2--------2---2-----|
D |----0h2------2----2-------2----0-------0----0-------0---|
A |--3-------------3---------------------------------------|
E |-----------------------------2-------------2------------|

    Refrain:

   G(5)                      D/F#
e |--------------------------------------------------------|
B |-------3------------3------------3------------3---------|
G |-----0---0--------0---0--------2---2--------2---2-------|
D |---0-------0----0-------0----0-------0----0-------0-----|
A |--------------------------------------------------------|
E |-3------------3------------2------------2---------------|

     Cadd9                     D/F#
e |--------------------------------------------------------|
B |--------3------------3------------3------------3--------|
G |------0---0--------0---0--------2---2--------2---2------|
D |----2-------2----2-------2----0-------0----0-------0----|
A |--3------------3----------------------------------------|
E |----------------------------2------------2--------------|

     G(5)                      D/F#
e |--------------------------------------------------------|
B |-------3------------3------------3------------3---------|
G |-----0---0--------0---0--------2---2--------2---2-------|
D |---0-------0----0-------0----0-------0----0-------0-----|
A |--------------------------------------------------------|
E |-3------------3------------2------------2---------------|

     Cadd9                     D/F#
e |--------------------------------------------------------|
B |--------3------------3------------3------------3--------|
G |------0---0--------0---0--------2---2--------2---2------|
D |----2-------2----2-------2----0-------0----0-------0----|
A |--3------------3----------------------------------------|
E |----------------------------2------------2--------------|

   Bridge:

   G(5)                      D/F#
e |--------------------------------------------------------|
B |-------3------------3------------3------------3---------|
G |-----0---0--------0---0--------2---2--------2---2-------|
D |---0-------0----0-------0----0-------0----0-------0-----|
A |--------------------------------------------------------|
E |-3------------3------------2------------2---------------|

     Cadd9                     D/F#
e |--------------------------------------------------------|
B |--------3------------3------------3---------------------|
G |------0---0--------0---0--------2---2---2---------------|
D |----2-------2----2-------2----0-------0-----------------|
A |--3------------3----------------------------------------|
E |----------------------------2---------------------------|

   Refrain:

  G(5)                      D/F#
e |--------------------------------------------------------|
B |-------3------------3------------3------------3---------|
G |-----0---0--------0---0--------2---2--------2---2-------|
D |---0-------0----0-------0----0-------0----0-------0-----|
A |--------------------------------------------------------|
E |-3------------3------------2------------2---------------|

     Cadd9                     D/F#
e |--------------------------------------------------------|
B |---------3------------3------------3------------3-------|
G |-------0---0--------0---0--------2---2--------2---2-----|
D |----0h2------2----2-------2----0-------0----0-------0---|
A |--3-------------3---------------------------------------|
E |-----------------------------2-------------2------------|


     G(5)                       D/F#
e |--------------------------------------------------------|
B |-------3------------3------------3------------3---------|
G |-----0---0--------0---0--------2---2--------2---2-------|
D |---0-------0----0-------0----0-------0----0-------0-----|
A |--------------------------------------------------------|
E |-3------------3------------2------------2---------------|

     Cadd9                     D/F#
e |--------------------------------------------------------|
B |--------3------------3------------3-----3---------------|
G |------0---0--------0---0--------2---2---2---------------|
D |----2-------2----2-------2----0-------0-----------------|
A |--3------------3----------------------------------------|
E |----------------------------2---------------------------|


Tap to rate this tab
# A B C D E F G H I J K L M N O P Q R S T U V W X Y Z