Guitaretab - guitar tabs
Song name
# A B C D E F G H I J K L M N O P Q R S T U V W X Y Z

Anssi Kela - Puistossa tab

Hey my first tab. Should be correct... =) A very easy little song to play.
Anssi Kela is a Finnish musician. Very melancolic and simple. Find the cd (nummela)
somewhere and IŽm shure youŽll agree with me.

-----------------------------------------------------------------------------
			     Puistossa - Anssi Kela
-----------------------------------------------------------------------------
Tabbed by: Joonatan Kutilainen
Email: joonatan.k@jippii.fi

Tuning: normal

Verse:

e|---------0-------------1-------------0-------------1----------------------|
B|-------1---1---1-----1-------------1---1---0-----0------------------------|
G|-----2-------------2-------------0-------------0--------------------------|
D|---2-------------3-------------2-------------0----------------------------|
A|-0---------------------------3--------------------------------------------|
E|--------------------------------------------------------------------------|

After the intro (which is basically the same, only the 
last five notes are missisng in it) played 8 times. Including one little bridge,
which is played, unlike the one coming later.
[ Tab from: http://www.guitaretab.com/a/anssi-kela/56771.html ]
e|---------0-------------1-------------0-----0------------------------------|
B|-------1---1---1-----1-------------1---1---0------------------------------|
G|-----2-------------2-------------0---------1------------------------------|
D|---2-------------3-------------2-----------2------------------------------|
A|-0---------------------------3-------------2------------------------------|
E|-------------------------------------------0------------------------------|

Let the last chord ring a moment

Chorus:

   Am    Am    F     F     C     C     G     G
e|-0-----0-----1-----1-----0-----0-----3-----3------------------------------|
B|-1-----1-----1-----1-----1-----1-----0-----0------------------------------|
G|-2-----2-----2-----2-----0-----0-----0-----0------------------------------|
D|-2-----2-----3-----3-----2-----2-----0-----0------------------------------|
A|-0-----0-----3-----3-----3-----3-----2-----2------------------------------|
E|-0-----0-----1-----1-----0-----0-----3-----3------------------------------|

Played 4 times. Then a bridge, which can be played like: Am,Am,F,F,Am,Am,Am
But I prefer not to.

ThatŽs it folks.
Order:
Verse
Chorus
Birdge (donŽt play)
Verse
Chorus
Bridge (what did I tell ya?)
Verse
Chorus 2 or 3 times, whatever

Thank you for your patience. Hope youŽll enjoy it.
Related for Puistossa tab
Puistossa chords by Anssi Kela