Guitaretab - guitar tabs
Song name
# A B C D E F G H I J K L M N O P Q R S T U V W X Y Z

Anterior - Silent Divide tab

The Slent Divide - Anterior

Tuning: DGCFAD
Gt 1
|----------------------------------|
|----------------------------------|
|----------------------------------|
|--------------5--4------4h5p4-----|
|-7-----5---7------------------7-5-|
|---0-0---0---0--0---0-0-----------|
    . .   .   .  .   . .

Gt 2
|-----------------------------------|
|-----------------------------------|
|-----------------------------------|
|-2----------------------7h9p7------|
|-2----------------------------9-10-|
|-0---------------------------------|

Gt1
|---------------|------------------------|
|---------------|------------------------|
|---------------|------------------------|
|-------5--4--7-|---5-----4h5p4----------|
|-3-3-3--3--3---|-3---3-3------7-5-------|
|---------------|------------------------|

Gt2
|-----------|
|-----------|
|-----------|
|-5--(5)----|
|-3--(3)----|
|-----------|


Both Gtrs
|-----------------|-------------------|
|-----------------|-------------------|
|-----------------|-------------------|
|-0-0-0-4-4-4-5-5-|-2-2-2-4-4-4-5-5---|
|-2-2-2-2-2-2-2-2-|-3-3-3-3-3-3-3-3---|
|-----------------|-------------------|
[ Tab from: http://www.guitaretab.com/a/anterior/100669.html ]
Both gtrs
|----------------------------------|
|----------------------------------|
|----------------------------------|
|--------------5--4------4h5p4-----|
|-7-----5---7------------------7-5-|
|---0-0---0---0--0---0-0-----------|

Gtr 1
|---------------|------------------------|--------|
|---------------|------------------------|--------|
|---------------|------------------------|--------|
|-------5--4--7-|---5-----4h5p4----------|--------|
|-3-3-3--3--3---|-3---3-3------7-5-------|-2~~----|
|---------------|------------------------|--------|

Gt 2
|---------------|------------------------|--------|
|---------------|------------------------|--------|
|---------------|------------------------|--------|
|-------5--4--7-|---5-----4h5p4----------|--------|
|-3-3-3--3--3---|-3---3-3------7-5-------|-5~~----|
|---------------|------------------------|--------|

Gtr 1
|-------------------------------|
|-------------------------------|
|--------------------4h5h7------|
|--------4h5h7-4h5h7------------|
|--3h5h7------------------------|
|-------------------------------|

Gtr 2
|-------------------------------|
|-------------------------------|
|-----------------------7h9h11--|
|---------7h9h10-7h9h10---------|
|--7h9h10-----------------------|
|-------------------------------|

cool song
rest is too hard
Related for Silent Divide tab
×
Silent Divide