Song name
# A B C D E F G H I J K L M N O P Q R S T U V W X Y Z

Anterior - Stir Of Echoes tab

E|0---------------------------------------------------------------|
A|6---------------------------------------------------------------|
D|5---------------5-5h6-5-5h6/3-5h6-------------------------------|
G|0--------------5-----------------6p5----------------------------|
B|4-4h6/3-1\3h4-3---------------------8h9-8-8h9\6-6h8\4-4h6\3-3h5-|
e|6---------------------------------------------------------------|

E|3-----------------3-------------3----------------------3---------|
A|5-----------------5-------------5----------------------5---------|
D|5-----------------5-------------5----------------------5---------|
G|4--(strum)3-5-8-7-4-(strum)-6-5-4-(strum)10-9-66666-5-04---------|(strum)
B|3---------3-5-8-7-3--------6----3--------10-9-66666-5-03---------|
e|3---------3-5-8-7-3-------------3--------10-9-66666-5-03---------|

E|-------------------------------------------------------|
A|-------------------------------------------------------|
D|-------------------------------------------------------|
G|----9p7-8-9----9p7-8-9----9p7-8-9----9p7-8-9-----------|   X3
B|9p7------7--9p7-----7--9p7-----7--9p7-----7-6-8-9-6----|
e|-------------------------------------------------------|

E|---------------------------------------------------------|
A|---------------------------------------------------------|
D|---------------------------------------------------------|
G|----9p7-8-9----9p7-8-9----9p7-8-9----9p7-8-9-------------|
B|9p7------7--9p7-----7--9p7-----7--9p7-----7-6-8-9-6-6\8~-|
e|---------------------------------------------------------|
Tap to rate this tab
 
# A B C D E F G H I J K L M N O P Q R S T U V W X Y Z