Song name
# A B C D E F G H I J K L M N O P Q R S T U V W X Y Z

Anthem Lights - Cant Get Over You tab

-------------------------------------------------------------------------------
			     CAN'T GET OVER YOU - Anthem Lights
-------------------------------------------------------------------------------
Tabbed by: twtwt
Email: sk8r_77@yahoo.com

MAKE SURE YOU READ THE ASTERISKS AT THE BOTTOM OF THE TAB!

Tuning: Standard

Intro Chords:

G Bm D A
G Bm A

             I love the way You love like no other
e|---------------------------------------2-----------------------------------|
B|-------0---------------3------------------------------2--------------------|
G|-----------------------------------2-------2-------------------------------|
D|---0-------0-------4--------4-----0---0---0---0----2-------2---------------|
A|-----------------2---2---2---2------------------0---0---0---0--------------|
E|-3---3---3---3-------------------------------------------------------------|
 (G)              (Bm)           (D)*            (A)**

         It's got nothing to do with anything that I do
e|-----------------------------------------------------------------------------|
B|-------0-----------------3---------------2---------------2-------------------|
G|-----------------------------------------------------------------------------|
D|---0-------0--------4--------4-------2--------2-------2------2---------------|
A|-------------------2---2---2---2---0---0---0---0---0---0---0---0-------------|
E|-3---3---3---3---------------------------------------------------------------|
(G)               (Bm)              (A)            (A)

            Time and time again You forgive me
e|---------------------------------------2-----------------------------------|
B|-------0---------------3------------------------------2--------------------|
G|-----------------------------------2-------2-------------------------------|
D|---0-------0-------4--------4-----0---0---0---0----2-------2---------------|
A|-----------------2---2---2---2------------------0---0---0---0--------------|
E|-3---3---3---3-------------------------------------------------------------|
 (G)              (Bm)           (D)             (A)

            So this time I choose to stay here with You
e|-----------------------------------------------------------------------------|
B|-------0-----------------3---------------2---------------2-------------------|
G|-----------------------------------------------------------------------------|
D|---0-------0--------4--------4-------2--------2-------2------2---------------|
A|-------------------2---2---2---2---0---0---0---0---0---0---0---0-------------|
E|-3---3---3---3---------------------------------------------------------------|
(G)               (Bm)              (A)            (A)

G
Hold me
D                           A
Pull me just a little bit closer
Bm                         G
I don't want to lose this moment
        D               A
You're love has covered me

                          G
And now I can't get over You
   D              A
I can't get over You
    Bm            G
I can't get over You
        D              A
I just can't get over You


                   Here in the arms of my Father
e|---------------------------------------2-----------------------------------|
B|-------0---------------3------------------------------2--------------------|
G|-----------------------------------2-------2-------------------------------|
D|---0-------0-------4--------4-----0---0---0---0----2-------2---------------|
A|-----------------2---2---2---2------------------0---0---0---0--------------|
E|-3---3---3---3-------------------------------------------------------------|
 (G)              (Bm)           (D)             (A)

             Only grace can be found so I lay my fears down
e|-----------------------------------------------------------------------------|
B|-------0-----------------3---------------2---------------2-------------------|
G|-----------------------------------------------------------------------------|
D|---0-------0--------4--------4-------2--------2-------2------2---------------|
A|-------------------2---2---2---2---0---0---0---0---0---0---0---0-------------|
E|-3---3---3---3---------------------------------------------------------------|
(G)               (Bm)              (A)            (A)

                      Nothing is the same anymore
e|---------------------------------------2-----------------------------------|
B|-------0---------------3------------------------------2--------------------|
G|-----------------------------------2-------2-------------------------------|
D|---0-------0-------4--------4-----0---0---0---0----2-------2---------------|
A|-----------------2---2---2---2------------------0---0---0---0--------------|
E|-3---3---3---3-------------------------------------------------------------|
 (G)              (Bm)           (D)             (A)

You've changed me from the inside out, Now my heart is beating and it's singing won't You...
e|-----------------------------------------------------------------------------|
B|-------0-----------------3---------------2---------------2-------------------|
G|-----------------------------------------------------------------------------|
D|---0-------0--------4--------4-------2--------2-------2------2---------------|
A|-------------------2---2---2---2---0---0---0---0---0---0---0---0-------------|
E|-3---3---3---3---------------------------------------------------------------|
(G)               (Bm)              (A)            (A)

G
Hold me
D                           A
Pull me just a little bit closer
Bm                         G
I don't want to lose this moment
        D               A
You're love has covered me

                          G
And now I can't get over You
   D              A
I can't get over You
    Bm            G
I can't get over You
        D              A
I just can't get over You

    G                        D
I can't get over the way
A                              Bm
Your love stays the same, oh Lord
    G                        D
I can't get over the way
A                              Bm
Your love stays the same, oh Lord

G                 Bm           D
Even through the good and the bad times
A            G
You stay the same
      Bm          A
So my song will remain
A
Lord

G
Hold me
D                           A
Pull me just a little bit closer
Bm                         G
I don't want to lose this moment
        D               A
You're love has covered me

                          G
And now I can't get over You
   D              A
I can't get over You
         Bm            G
There's nothing I can do
        D              A
I just can't get over You

Outro:
                  G
I can't get over You
Bm D A
G Bm A



*When picking the "D" chord, they alternate between picking a D on the 5th string (fret
3) and an F# on the 6th string (fret 2), so it is really up to you what you would like
to play!  I personally play the F# on the sixth string, which is why I put that into 
this tab.
** The "A" chord in the verses carries over to the next line, so the tabs do not
directly match the lyrics. If I were to try and match them up, it wouldn't look uniform and
would get confusing, so I figured that if you listen to the song, you should be able to 
figure it out. The lyrics are only there as a simply guide to know where you are in the song.
If you think I should change this, or you have any other comments, just email me. sk8r_77@yahoo.com
Tap to rate this tab
# A B C D E F G H I J K L M N O P Q R S T U V W X Y Z