Song name
# A B C D E F G H I J K L M N O P Q R S T U V W X Y Z

Anthony Corona - Burn tab

-------------------------------------------------------------------------------
			     Burn (intro) - Onslaught
-------------------------------------------------------------------------------
Tabbed by: Jono
Email:

Tuning: jr0p d33 (Drop D)

e|---------------------------------------------------------------------------|
B|---------------------------------------------------------------------------|
G|---------------------------------------------------------------------------|
D|---0--------------0--------------0------------8-7--3-5---------------------|x4
A|-x-0------------x-0------------x-0------------8-7--3-5---------------------|
E|-x-0-0-6p5p3h5--x-0-0-6p5p3h5--x-0-0-6p5p3h5--8-7--3-5---------------------|

e|---------------------------------------------------------------------------|
B|---------------------------------------------------------------------------|
G|---------------------------------------------------------------------------|
D|---0--------------0--------------0-----------------------------------------|
A|-x-0------------x-0------------x-0-----------------------------------------|
E|-x-0-0-6p5p3h5--x-0-0-6p5p3h5--x-0-0-6p5p3h5-------------------------------|

e|---------------------------------------------------------------------------|
B|---------------------------------------------------------------------------|
G|---------------------------------------------------------------------------|
D|-10-9--6-7--8-7--3-5--10-9--6-7--8-7--3-5----------------------------------|
A|-10-9--6-7--8-7--3-5--10-9--6-7--8-7--3-5----------------------------------|
E|-10-9--6-7--8-7--3-5--10-9--6-7--8-7--3-5----------------------------------|

e|---------------------------------------------------------------------------|
B|---------------------------------------------------------------------------|
G|---------------------------------------------------------------------------|x6
D|---0--------------0--------------0------------8-7--3-5---------------------|     
A|-x-0------------x-0------------x-0------------8-7--3-5---------------------|
E|-x-0-0-6p5p3h5--x-0-0-6p5p3h5--x-0-0-6p5p3h5--8-7--3-5---------------------|

e|---------------------------------------------------------------------------|
B|---------------------------------------------------------------------------|
G|---------------------------------------------------------------------------|
D|-10-9--6-7--8-7--3-5-------------------------------------------------------|
A|-10-9--6-7--8-7--3-5-------------------------------------------------------|
E|-10-9--6-7--8-7--3-5-------------------------------------------------------|

That's all I've got for now, hope it's alright.

| /  slide up
| \  slide down
| h  hammer-on
| p  pull-off
| ~  vibrato
| +  harmonic
| x  Mute note
===============================================================================
Tap to rate this tab
# A B C D E F G H I J K L M N O P Q R S T U V W X Y Z