Song name
# A B C D E F G H I J K L M N O P Q R S T U V W X Y Z

Anthony Da Costa - Love Is Not Enough chords

Highlighted       Show chord diagrams
Anthony Da Costa - Love is not Enough
http://www.anthonydacosta.com/

Note: The first is not perfect, but it's close enough.


Standard Tuning
Open Fret


Chords:

Bm:  224432
A:   002220
G:   320030
F#:  244322
Em:  022000
A7:  002232
Em7: 022033
D5:  557775
A5:  577655
G5:  355433




Riff 1: (Variation of the pentatonic scale)

						 Bm

E ----------------------------------------------2--2------|
B ----------------3-2-0-------------------2-0---3--3------|
G ----------------------------0---4-3---3-------4--4------|
D ------0-2-4-0---------4-0-2---4-----4---------4--4------|
A --2-4---------0-------------------------------2--2------|
E ----------------------------------------------2--2------|


Riff 2:

E --------------------2--------|
B --------------------3--------|
G --------------------4--------|
D --------------------4--------|
A ------------0--2----2--------|
E ---0--2--3----------2--------|


Intro: Riff 1


Bm                   A
You are everywhere I go
        G          F#m    Bm
I can't escape you for my life
D            A
Anytime I go anywhere,
     G   F#  Em
it's you and I
D               A
People say that I am crazy
    G                 F#    Em7
for something I could never have,
      D A7            Em7   G
and I guess they're right
Riff 2
Especially tonight


Chorus:

D5  A5    G5
uh, uh, I believe in love,
D5  A5            G5
uh, uh, and I can see it's not enough
Riff 2
love is not enough

Riff 1

Bm                          A
Zombies running through the night,
       G       F#    Bm
always looking for a home
D                    A
I know what it is to be half there,
G        F#   Em
half sad and alone
D               A
People say that life is way too short
      G            F#         Em7
for believing in a ghost like you,
      D A7         Em7     G
and I guess that's true...
Riff 2
but what else can I do?


Chorus x2:

D5  A5    G5
uh, uh, I believe in love,
D5  A5            G5
uh, uh, and I can see it's not enough
Riff 2
Love is not enough


Riff 1

Enjoy!
-Victor Medina.
Tap to rate this tab
 
# A B C D E F G H I J K L M N O P Q R S T U V W X Y Z