Guitaretab - guitar tabs
Song name
# A B C D E F G H I J K L M N O P Q R S T U V W X Y Z

Anthony Green - She Loves Me So tab

Artist: Anthony Green
Song: She Loves Me So
Album: Avalon
Tabbed By: Ryan Arismendez; myspace.com/hardcore_pokemon
Email: ryansavespolarbears@yahoo.com


Verse:
E--0--3--0-------|
B--7--3--0-------|
G--6--4--6-------|
D--7--5--7-------|
A--5-----7-------|
E----------------|
I keep writing myself into rust
It’s all around us

Get naked and get into bed right away

I keep writing myself into rust
Make it all seem so much harder

Pre Chorus: 
E----------------|
B-10--9----------|
G-11--9--12--11--|
D--9--7--12--12--|
A--------10--10--|
E----------------| 
But soon…, you’ll be far away

E----------------|
B-3---5----------|
G-4---6----------|
D-5---7----------|
A----------------|
E----------------|
Just keep your lonely 
hands in yours pockets 
and fold away all your 
best clothes

I’m only really happy if 
I know
[ Tab from: http://www.guitaretab.com/a/anthony-green/108199.html ]
Chorus
E---0--12---0--12--|
B---10-10--10--10--|
G---11-11--11--11--|
D---12-12--12--12--|
A------------------|
E------------------|
She loves me so[X2]

Verse:
E--0--3--0-------|
B--7--3--0-------|
G--6--4--6-------|
D--7--5--7-------|
A--5-----7-------|
E----------------|
I keep writing myself into rust
It’s all around us

Get naked and get in my heart as fast as you can

I keep writing myself into rust
Make it all seem so much harder

Pre Chorus: 
E----------------|
B-10--9----------|
G-11--9--12--11--|
D--9--7--12--12--|
A--------10--10--|
E----------------| 
But soon…, you’ll be far away, Far away

E----------------|
B-3---5----------|
G-4---6----------|
D-5---7----------|
A----------------|
E----------------|
Keep your lonely 
eyes to yourself and 
fold, 
fold yourself away

Make sure all those mother fucking 
boys know…

Chorus
E---0--12---0--12--|
B---10-10--10--10--|
G---11-11--11--11--|
D---12-12--12--12--|
A------------------|
E------------------|
She loves me so [X4]

E-mail me if you need anything! :D
Related for She Loves Me So tab
Advertisement will be closed in 10 seconds