Song name
# A B C D E F G H I J K L M N O P Q R S T U V W X Y Z

Anthony Green - She Loves Me So Live tab

Pretty easy song. I've seen him play it and I'm pretty that this is right.
You can figure the strumming pattern on your own.

Tuning is 1/2 step down in this version. But he tunes it down a whole step in his demo version


[----0----0----0---]
[----7----5----0---]
[----6----4----6---]
[----0----6----7---]    x3
[------------------]
[------------------]
I keep.......rust......around us..

[----12----9----7----5----2----4----2----4----]
[----10----9----7----7----3----5----3----5----]
[----11----9----7----7----4----6----4----6----]
[----0-----0----0----7----0----0----0----0----]      x1
[---------------------------------------------]
[---------------------------------------------]
  but soon...she'll be far away....


[----12-----]
[----10-----]
[----11-----]
[----12-----]  
[----0------]
[----x------]
she loves me sooooo!!!

[----0----0----0---]
[----7----5----0---]
[----6----4----6---]
[----0----6----7---]    x3
[------------------]
[------------------]

[----12----9----7----5----2----4----2----4----]
[----10----9----7----7----3----5----3----5----]
[----11----9----7----7----4----6----4----6----]
[----0-----0----0----7----0----0----0----0----]      x1
[---------------------------------------------]
[---------------------------------------------]

[----12-----]
[----10-----]
[----11-----]
[----12-----]  
[----0------]
[----x------]
she loves me sooo!
Tap to rate this tab
# A B C D E F G H I J K L M N O P Q R S T U V W X Y Z