Song name
# A B C D E F G H I J K L M N O P Q R S T U V W X Y Z

Anthony Green - The First Day Of Work At The Microscope Store tab

Band: Anthony Green
Song: The First Day Of Work At The Microscope Store
Album: Avalon
Email: Shempashland@yahoo.com
Tabbed By: Matt Florio; www.myspace.com/mattflorio2

Here is a tab for "First Day Of Work At The Microscope Store"  by Anthony Green.
This is a fairly simple song but if you have any issues, questions, or comments please contact me!

Tuning: FULL STEP DOWN(DGCFAD)
demo version is Half Step Down)
        
Intro/Verse
D|--00--00--00--00--|
A|--77--00--77--00--|
F|--88--88--88--88--|
C|--66--66--66--66--|
G|--00--77--00--77--|
D|------00------00--|

Prechorus *this part goes right into the chorus
D|--0---------|
A|--0---------|
F|--5---------|
C|--6---------|
G|--4---------|
D|------------|

Chorus
D|--0-------0-------|
A|--0-------0-------|
F|-13-------5-------|
C|-14-------6-------|
G|-12-------4-------|
D|------------------|
"Serenade... until..."
Tap to rate this tab
# A B C D E F G H I J K L M N O P Q R S T U V W X Y Z