Anthony Green - Show Your Teeth tab

tabbed from an old recording of Anthony playing this. This version is slightly 
different then the Audience Of One version.
--------------------------------------------------------------------------
Anthony Green plays in DGCFAD/whole step down.
---------------------------------------------------------------------------
d ---X--------|
A ---12-------| 
F ---13-------| 
C ---11-------| 
G ---0--------|
D ---X--------|
                           
e ---X-----X--|
B ---0-----0--|
G ---9-----8--|
D ---7-----6--| 
A ---9-----7--|
E ---X-----X--|

        ^
strum *sounds like baby girl but slowed down, uses the same chords as well*

e ---0--0---0--0-----| 
B ---0---0--0----0---|
G ---6-6----9--9-----|
D ---4------7--------|
A ---X------X--------|
E ---X------X--------|
--------------------------------------------------------------------------
outro:

e --0--0--0--0--0-| 
B ---0--0--0--0---|
G -9--------------|
D ----------------|
A ----------------|
E ----------------|
---------------------------------------------------------------------------
Show your teeth
Want so much to watch you hang
Show your teeth
Want so much to watch you cry
Show your teeth
Want so much to watch you hang
Show your teeth
I love this
Show your teeth
Show your teeth
Want so much to watch you cry
Show your teeth
I want so much

---------------------------------------------------------------------------
Tap to rate this tab
 
# A B C D E F G H I J K L M N O P Q R S T U V W X Y Z