Song name
# A B C D E F G H I J K L M N O P Q R S T U V W X Y Z

Anthony Green - Love You No Matter What tab

Verse: "Marley, or James..."

D------7---------|
A------8---------|
F------7---------|
C----------------|
G----------------|
D----------------|

D------5---------|
A------7---------|
F------7---------|
C----------------|
G----------------|
D----------------|

Prechorus: "Even if spikes grow from out of your head..."

D------3---------|
A------5---------|
F------5---------|
C----------------|
G----------------|
D----------------|

D------2---------|
A------4---------|
F------4---------|
C----------------|
G----------------|
D----------------|


Chorus: "I'll love you no matter what..."

D------7---------|
A------8---------|
F------7---------|
C----------------|
G----------------|
D----------------|

D------5---------|
A------7---------|
F------7---------|
C----------------|
G----------------|
D----------------|

Verse: "If you're fat, or you're small..."

D------7---------|
A------8---------|
F------7---------|
C----------------|
G----------------|
D----------------|

D------5---------|
A------7---------|
F------7---------|
C----------------|
G----------------|
D----------------|

Prechorus: "Even if I'm shocked every time we embrace..."

D------3---------|
A------5---------|
F------5---------|
C----------------|
G----------------|
D----------------|

D------2---------|
A------4---------|
F------4---------|
C----------------|
G----------------|
D----------------|

Chorus: "I'll love you no matter what..."

D------7---------|
A------8---------|
F------7---------|
C----------------|
G----------------|
D----------------|

D------5---------|
A------7---------|
F------7---------|
C----------------|
G----------------|
D----------------|

End Chord:


D------7---------|
A------8---------|
F------7---------|
C----------------|
G----------------|
D----------------|
Tap to rate this tab
# A B C D E F G H I J K L M N O P Q R S T U V W X Y Z