Song name
# A B C D E F G H I J K L M N O P Q R S T U V W X Y Z

Anthony Green - Lullaby I Want To Murder You And Bury You In My Back Yard tab

i looked everywhere, but couldnt find it. so i decided to do it myself.
this is my first tab, and its just the main melody of the song.
hope this helps spread beauty into the world.


e|-10-7---10-7---7-8-7---7----|
b|------8------8-------10--10-|
g|----------------------------|
d|----------------------------|
a|----------------------------|
E|----------------------------|

e|-10-7---10-7---7-8-7---------|
b|------8------8-------10------|
g|------------------------7----|
d|-----------------------------|
a|-----------------------------|
E|-----------------------------|
Tap to rate this tab
 
# A B C D E F G H I J K L M N O P Q R S T U V W X Y Z