Song name
# A B C D E F G H I J K L M N O P Q R S T U V W X Y Z

Anthony Green - Diamond Eyes tab

Listen to Anthony's cover for the proper strumming.

Verse:
e|-0-0-0-0--0-0-0-0-----|
B|-1-1-1-1--1-1-1-1-----|
G|-2-2-2-2--2-2-2-2-----|
D|-2-2-2-2--3-3-3-3-----|
A|-0-0-0-0--3-3-3-3-----|
E|-----------3-3-3-3----|

Chorus:
e|-0-0--3-0--0-----|
B|-2-2--3-0--2-----|
G|-2-2--0-0--2-----|
D|-0-0--0-2--0-----|
A|-0-0--0-2--0-----|
E|-----------------|
(Chorus repeats through)
Tap to rate this tab
# A B C D E F G H I J K L M N O P Q R S T U V W X Y Z