Song name
# A B C D E F G H I J K L M N O P Q R S T U V W X Y Z

Anthony Green - Diamond Eyes Acoustic tab

Listen to Anthony's cover for the proper strumming. (Made a mistake on the last tab for 
this song, sorry!!!)


Verse:
e|-0-0-0-0--0-0-0-0--------|
B|-1-1-1-1--1-1-1-1--------|
G|-2-2-2-2--0-0-0-0--------|
D|-2-2-2-2--2-2-2-2--------|
A|-0-0-0-0--3-3-3-3--------|
E|-----------3-3-3-3-------|
(verse repeats through)

Chorus:
e|-0-0--0--0--0--------|
B|-0-0--0--0--0--------|
G|-0-0--0--2--0--------|
D|-2-2--0--2--2--------|
A|-2-2--3--0--2--------|
E |-0-0--3--0--0-------|
(chorus repeats through)
Tap to rate this tab
# A B C D E F G H I J K L M N O P Q R S T U V W X Y Z