Song name
# A B C D E F G H I J K L M N O P Q R S T U V W X Y Z

Anthony Green - Young Legs tab

Haven't quite figured out the verses, but here's the intro and the "What did you see 
Martha Lee?" part

Standard tuning, capo on 3

e---0------0-0-----0--------------|
B---0------1-1-----1--------------|
G---0------2-0h2p0-0--------------|
D---2-000--2-2-----2--------------|  Repeat this a few times then this:
A---2-xxx--0-0-----0--------------|
E---0-223-------------------------|


e---0------0--0------------------|
B---0------1/-3------------------|
G---0------2/-4------------------|
D---2-000--2/-4------------------|  This leads into the verse
A---2-xxx--0--0------------------|
E---0-223------------------------|
Tap to rate this tab
 
# A B C D E F G H I J K L M N O P Q R S T U V W X Y Z