Song name
# A B C D E F G H I J K L M N O P Q R S T U V W X Y Z

Anthony Green - James Song tab

Tune 1 step down

d----------0-0-0--0-0--0-----0-------0-0-------------------------------|
A----------7-8-7--5/3--3h5p3-3-3h5p3-3-0-------------------------------|
F----------0-0-0--0-0--0-----0-0-----0-0-------------------------------|
C----------0-0-0--0-0--0-----0-0-----0-0-------------------------------|
G----------7-7-7--7/5--5-----5-5-----5-5-------------------------------|
D----------------------------------------------------------------------|


d----------0-0-0--0-0--0-----0-------0---------------------------------|
A----------7-8-7--5/3--3h5p3-3-3h5p3-0---------------------------------|
F----------0-0-0--0-0--0-----0-0-----0---------------------------------|
C----------0-0-0--0-0--0-----0-0-----0---------------------------------|
G----------7-7-7--7/5--5-----5-5-----5---------------------------------|
D----------------------------------------------------------------------|
Tap to rate this tab
# A B C D E F G H I J K L M N O P Q R S T U V W X Y Z